Harem Scarem - Honestly Chords & Tabs

 

Honestly Chords & Tabs

Harem Scarem Chords & Tabs

Version: 1 Type: Tab 0 ratings
1 star 2 stars 3 stars 4 stars 5 stars
comments

Honestly Tab

song:honestly
artist:harem scarem
transcribed by:jones canonizado

tune your guitar one note lower                                      


intro:

----------------------------------------------------------7---------
--------------------0------------------------------5\4----5---------
-----------------1-----0---------------------------4----------------
--------4-----4----------------------------------------------7-\-9--
-----2-----2-----------------------2--4-\-6--4--4-------4-----------
--0------------------------0--2h4-----------------------------------


--------------------0-------------0----------7------5-----4------2--
--9--7--5--7--------0---------------4--------9-9----7-7---5-5----4-4
------------------2---------2-\-4-----4-----------------------------
--9--7--6--7----2---------2-----------------------------------------
--------------0---------0-------------------------------------------
------------------------------------------0-------0------0-----0----

-------------------                                                 
---------0---------                                                  
-----------0h1-----                                                 
---------------2---                                                 
-------------------                                                 
--2-\-4------------                                                 


verse pattern:

--------0--------------------------------------7--------------------
----------0----------------------------5\4-----5----------0---------
------------2--------------------------4---------------------0h1----
--------------------------------------------------4-\-6-6---------2-
-----2-----------------2--4-\-6--4--4-------4-----------------------
--0------------0--2h4-----------------------------------------------
[ Tab from: http://www.guitartabs.cc/tabs/h/harem_scarem/honestly_tab.html ]
--------0------------------------------------0-----                 
----------0-------------------0----------------0---                 
------------2-------------------0h1--------------2-  (repeat 2x)     
-----2---------------2-4-\-6---------2-------------   do this pattern
--0-----------0--2h4----------------------2--------   once in chorus1 
----------------------------------------0----------    

refrain pattern:

--------------------------------4----------------2------------------
------9--------7------------------5----------------2----------------
--------9--------8--------4---4-----4------4---4-----4------2---2---
----------9--------9----6---6------------4---4------------2---2-----
---7---------6--------4----------------2----------------0-----------
--------------------------------------------------------------------

---0-----------------------------------4----------------2-----------
-----0-----------5----7------------------4----------------2---------
-------2----------------8--------6---6-----6------4---4-----4------2
-----------------6--------9----6---6------------4---4------------2--
----------5-\-7-----6--------4----------------2----------------0----
--------------------------------------------------------------------

------0-------0-----                                                
--------0---0---0---   repeat this pattern in refrain 1&2 and in the
----2-----2-------2-   adlib!                                       
--2-----------------                                                
--------------------                                                
--------------------

bridge pattern:

------------0----------------0----------------0----------------0-----
--------------0--------3---3---3----------------0----------------1---
----------------1----2---2-------2------2---2-----0------0-----------
------2---2--------0------------------2---2------------2---2---------
----2---2---------------------------0----------------3---------------
--0------------------------------------------------------------------

----------------0--------------0---------------------0-------0-       
------------------0-------3--------3-------------------0-----1-      
--------------------1---2---2---------2--------2---2-----2---0-      
----------2---2-------0-----------------0----2---2-----------2-       
--------2---2------------------------------0-----------------3-      
--3-2-0------------------------------------------------------3-

      

        
Comments