Hardline - Weight Chords & Tabs

 

Weight Chords & Tabs

Hardline Chords & Tabs

Version: 1 Type: Tab 0 ratings
1 star 2 stars 3 stars 4 stars 5 stars
comments

Weight Tab

Album: II

e------------------|
B------------------|
G------------------|
D------------------|
A------------------|
E-888-666-444-666--|  (x2)
[ Tab from: http://www.guitartabs.cc/tabs/h/hardline/weight_tab.html ]
e---------------------------------|
B---------------------------------|
G---------------------------------|
D-10-10-10--8-8-8--6-6-6--8-8-8---|
A-10-10-10--8-8-8--6-6-6--8-8-8---|
E-8--8--8---6-6-6--4-4-4--6-6-6---|  (x3)

e------------------------|
B------------------------|
G------------------------|
D-10-10-10--8-8-8--6-6-6-|
A-10-10-10--8-8-8--6-6-6-|
E-8--8--8---6-6-6--4-4-4-|

Any comments, email: melodic_hard_rock@hotmail.com
Comments