Hardin Tim - If I Were A Carpenter Chords & Tabs

 

If I Were A Carpenter Chords & Tabs

Hardin Tim Chords & Tabs

Version: 1 Type: Tab 0 ratings
1 star 2 stars 3 stars 4 stars 5 stars
comments

If I Were A Carpenter Tab

   
Minstrel71@yahoo.com (Stephen Mabry)
Oct.22, 2001
Did not find a listing for this, so I
sat down and figured it out.

No capo:  Key of D
If I Were A Carpenter	
Words & Music:  Tim Hardin	

(Intro) D  C  G  D

(Outro) D  C  G  D


(Melody line)

  If I were a  car-pen-ter  and u were a  lady
E-----------------------------------------------------
B-----------------------------------------------------
G-------0---2---2---0---0----0--0--2---4--4-2---------
D-4--4------------------------------------------------
A-----------------------------------------------------
E-----------------------------------------------------

  w'ld u marry me anyway    w'ld u have my baby
E-----------------------------------------------------
B-----------------------------------------------------
G-----------------------------------------------------
D--4---4--4-2--0---2-0--------------0---2--2-0--------
A----------------------3------2--2--------------------
E-----------------------------------------------------

[ Tab from: http://www.guitartabs.cc/tabs/h/hardin_tim/if_i_were_a_carpenter_tab.html ]
  if I tink'r were my trade  w'ld u still love me
E-----------------------------------------------------
B-----------------------------------------------------
G-------0--2----2---0---0------0--2---4-----4---2-----
D-0--4------------------------------------------------
A-----------------------------------------------------
E-----------------------------------------------------
  carry'n the pots I made   follow'n behind me 
E-----------------------------------------------------
B-----------------------------------------------------
G-----------------------------------------------------
D-4-4-2----0---2---0--------------0---2--2---0--------
A----------------------3----2--2----------------------
E-----------------------------------------------------

  Save my luv thr'gh lonelyness save my luv for sorrow
E-----------------------------------------------------
B--1----1--3-----5----3-------------------------------
G------------------------2--2----0----0---2--4---2----
D---------------------------------------------------4-
A-----------------------------------------------------
E-----------------------------------------------------
Check-out my Edie Brickell posting for 'Circle'
And my 'Kate Wolf' postings.
Comments, questions, corrections. 
E-mail me at minstrel71@yahoo.com
Comments