Hardcore Superstars - Someone Special Chords & Tabs

 

Someone Special Chords & Tabs

Hardcore Superstars Chords & Tabs

Version: 2 Type: Tab 0 ratings
1 star 2 stars 3 stars 4 stars 5 stars
comments

Someone Special Tab

   
Someone Special
H A R D C O R E   S U P E R S T A R
Tabbed By Aaron Bridgeman (rokken@sicness.net)

http://bogans.arecool.net

INTRO:
e|-----------------------------------------------------------------|
B|-----------------------------------------------------------------|
G|-----------------------------------------------------------------|
D|-6-6-6-6-6-6-6-6-4-4-4-4-4-4-4-4-2-2-2-2-4-4-4-4-6-6-6-6-6-6-6-6-|
A|-6-6-6-6-6-6-6-6-4-4-4-4-4-4-4-4-2-2-2-2-4-4-4-4-6-6-6-6-6-6-6-6-|
E|-4-4-4-4-4-4-4-4-2-2-2-2-2-2-2-2-0-0-0-0-2-2-2-2-4-4-4-4-4-4-4-4-|

VERSE: (bass only)
G|-----------------------------------------------------------------|
D|-----------------------------------------------------------------|
A|-----------------------------------------------------------------|
E|-4-4-4-4-4-4-4-4-2-2-2-2-2-2-2-2-0-0-0-0-2-2-2-2-4-4-4-4-4-4-4-4-|
[ Tab from: http://www.guitartabs.cc/tabs/h/hardcore_superstars/someone_special_tab_ver_2.html ]
PRE-CHORUS:
e|---------------------------------|             |---------------------------------|
B|---------------------------------|             |---------------------------------|
G|---------------------------------| twice, then |---------------------------------|
D|-----------------4-4-4-4-4-4-4-4-|             |---------------------------------|
A|-6-6-6-6-6-6-6-6-2-2-2-2-2-2-2-2-|             |-4-4-4-4-4-4-4-4-4-4-4-4-4-4-4-4-|
E|-4-4-4-4-4-4-4-4-----------------|             |-2-2-2-2-2-2-2-2-2-2-2-2-2-2-2-2-|

CHORUS:
e|-----------------------------------------------------------------|
B|-----------------------------------------------------------------|
G|-----------------------------------------------------------------|
D|-4-4-4-4-4-4-4-4-------------------------------------------------|
A|-2-2-2-2-2-2-2-2-4-4-4-4-4-4-4-4-2-2-2-2-2-2-2-2-4-4-4-4-4-4-4-4-|
E|-----------------2-2-2-2-2-2-2-2-0-0-0-0-0-0-0-0-2-2-2-2-2-2-2-2-|

That's all the rhythm parts. Joy. Enjoy.
Comments