Hard-ons - Punk Police Chords & Tabs

 

Punk Police Chords & Tabs

Hard-ons Chords & Tabs

Version: 1 Type: Tab 0 ratings
1 star 2 stars 3 stars 4 stars 5 stars
comments

Punk Police Tab

Intro:

e|-5-3-5-8-5--5-3-5-8-5--| X4
B|-----------------------|
G|-----------------------|
D|-----------------------|
A|-----------------------|
E|-----------------------|

Verse:

e|----------------------------------|X2
B|----------------------------------|
G|-5555555-2-22222222---------------|
D|-5555555-2-22222222---------------|
A|-3333333-4-00000000---------------|
E|----------------------------------|


Chorus:

e|-------------------------------------------------|X2
B|-------------------------------------------------|
G|-------------------------------------------------|
D|-222222-55-222222-55-----------------------------|
A|-222222-55-222222-55-----------------------------|
E|-000000-33-000000-33-----------------------------|

Verse:

e|----------------------------------|X2
B|----------------------------------|
G|-5555555-2-22222222---------------|
D|-5555555-2-22222222---------------|
A|-3333333-4-00000000---------------|
E|----------------------------------|


Chorus:
[ Tab from: http://www.guitartabs.cc/tabs/h/hard_ons/punk_police_tab.html ]
e|-------------------------------------------------|X2
B|-------------------------------------------------|
G|-------------------------------------------------|
D|-222222-55-222222-55-----------------------------|
A|-222222-55-222222-55-----------------------------|
E|-000000-33-000000-33-----------------------------|

bridge:

e|-5-3-5-8-5--5-3-5-8-5--| X4
B|-----------------------|
G|-----------------------|
D|-----------------------|
A|-----------------------|
E|-----------------------|

Verse:

e|----------------------------------|X2
B|----------------------------------|
G|-5555555-2-22222222---------------|
D|-5555555-2-22222222---------------|
A|-3333333-4-00000000---------------|
E|----------------------------------|

Chorus:

e|-------------------------------------------------|X2
B|-------------------------------------------------|
G|-------------------------------------------------|
D|-222222-55-222222-55-----------------------------|
A|-222222-55-222222-55-----------------------------|
E|-000000-33-000000-33-----------------------------|
Comments