Hard-fi - Stronger Chords & Tabs

 

Stronger Chords & Tabs

Hard-fi Chords & Tabs

Version: 1 Type: Bass Tab

Stronger Bass Tab

   
Hard-Fi - Stronger

Bass Standard Tuning (E-A-D-G)

Tabbed by Kevin Ritter (Knaeckebrot)



Intro
G|--------------------------------------------|
D|---------------------4-4-4-4-4h-------------|
A|-0-0-0-0-0h5-5-5-5-5h----------2-2-2-2-2h---|
E|------------------------------------------x1|


Verse
G|--------------------------------------------|
D|---------------------4-4-4-4-4h-------------|
A|-0-0-0-0-0h5-5-5-5-5h----------2-2-2-2-2h---|
E|------------------------------------------x2|

G|-------------------------------------|
D|---------2-2-2-2---------------------|
A|-0-0-0-0---------0-0-0-0-0-0-(0-0)---|
E|-----------------------------------x1|


Pre-Chorus
G|--------------------------------------|
D|----------------------------2-2-2-2---|
A|-0012-2-2-2-2-2-223-4-4-4-4-----------|
E|------------------------------------x1|


Chorus
G|-------------------------------------------------------|
D|-------------------------------------------------------|
A|-0-0-0-0-0h5-5-5-5-5h0-0-0-0-0h5-5-5-5-5h--------------|
E|-----------------------------------------2-2-2-2 2h--x1|
[ Tab from: http://www.guitartabs.cc/tabs/h/hard_fi/stronger_btab.html ]
G|--------------------------------------------------|
D|--------------------------------------------------|
A|2-2-2-2-2h0-0-0-0-0h5-5-5-5-5h0-0-0-0-0-0-0-0-0---|
E|------------------------------------------------x1|


Verse (x1)

Pre-Chorus (x1)

Chorus (last note A|-2-|) (x1)


Bridge
G|-----------------------------------|
D|-----------------------------------|
A|---------------0-2-2-2-2-2-2-2-0---|
E|-2-2-2-2-2-2-2-------------------x1|

G|-----------------------------------|
D|-------------------------2-2-2-2---|
A|---------------0-4-4-4-4-----------|
E|-2-2-2-2-2-2-2-------------------x1|


Verse (x1)

Pre-Chorus (x1)


Final Chorus
G|-------------------------------------------------------|
D|-------------------------------------------------------|
A|-0-0-0-0-0h5-5-5-5-5h0-0-0-0-0h5-5-5-5-5h--------------|
E|-----------------------------------------2-2-2-2 2h--x1|

G|-------------------------------------------|
D|-------------------------------------------|
A|2-2-2-2-2h0-0-0-0-0h5-5-5-5-5h0-/12(x16)---|
E|-----------------------------------------x1|

G|--------------------|------------------------|
D|--------------------|------------------------|
A|-0-0-0-0-/12(x12)---|-0-0-0-0-/12-12-12-12---|
E|------------------x1|----------------------x4|


End on
G|----|
D|----|
A|-0~-|
E|----|


Official Website of "Hard-Fi"
http://www.hard-fi.com/