Happy Mondays - Hallelujah Chords & Tabs

 

Hallelujah Chords & Tabs

Happy Mondays Chords & Tabs

Version: 1 Type: Tab 0 ratings
1 star 2 stars 3 stars 4 stars 5 stars
comments

Hallelujah Tab

HAPPY MONDAYS
Hallelujah (paul oakenfold mix)

tabbed by: Juan David Torres
e-mail: jdtporgy@hotmail.com

standart tuning (EADGBe)

piano part
riff 1

e---1/3-3-1-3-1-3-1/3-3-1-3-1--------
B---3-3-3-3-3-3-3-3-3-3-3-3-3--------
G------------------------------------	
D------------------------------------
A------------------------------------
E------------------------------------	  
[ Tab from: http://www.guitartabs.cc/tabs/h/happy_mondays/hallelujah_tab.html ]
guitar part (clean
riff 1
e---1h3-3-1-3-1-3-1h3-3-1-3-3--------
B---3-3-3-3-3-3-3-3-3-3-3-3-3--------
G------------------------------------	
D------------------------------------
A------------------------------------
E------------------------------------

(first in second 59)
guitar 2 (softly and clean)
e---------------------
B-----------------------
G---5-5--5-5-5-6-7--7-7--7-6-5-3------	
D---5-5--5-5-5-6-7--7-7--7-6-5-3-3----
A---3-3--3-3-3-4-5--5-5--5-4-3-1-3----
E--------------------------------1----	

the wahh part
e--------------------------------------------
B----------------------------------10--------
G-------------------------------------12-----
D---12-12-12-12-12-12-10-12-10-12--------10--
A--------------------------------------------	play this sometimes
E--------------------------------------------

repeat the riffs in the rest of song
Comments