Hanzel Und Gretyl - Ubermensch Uberfrau Chords & Tabs

 

Ubermensch Uberfrau Chords & Tabs

Hanzel Und Gretyl Chords & Tabs

Version: 1 Type: Tab

Ubermensch Uberfrau Tab

   
Note: Not made by me, just sharing

Song: Ubermensch Uberfrau
Artist: Hanzel Und Gretyl

Legend:
h = hammer-on
p = pull-off
b = bend to note
rb= release bend
/ = slide to fret
~ = vibrato
PM... = palm-muting of dotted sections
x = pick scrape




Tuning: Drop C


Silence up to 0:40secs

Riff 1

D-----------------------------------------------------------------------|
A-----------------------------------------------------------------------|
F-----------------------------------------------------------------------|
C-----------------------------------------------------------------------|   X4
G--5-5-5-5-5-5-5-5-5-5-5-5b6-6-6-6-6rb5---------------------------------|
C-----------------------------------------------------------------------|
                 (Gradual bend, keep picking the bent note)




Riff 2  (with Riff 4 underneath)
[ Tab from: http://www.guitartabs.cc/tabs/h/hanzel_und_gretyl/ubermensch_uberfrau_tab.html ]
D-----------------------------------------------------------------------|
A-----------------------------------------------------------------------|
F-----------------------------------------------------------------------|
C----6---6-6-6-6-6-6-6----6---------------------------------------------|   
G--5---5----------------5---5-------------------------------------------|
C-------------------------------0---------------------------------------|


Riff 4 
D-----------------------------------------------------------------------|
A-----------------------------------------------------------------------|
F-----------------------------------------------------------------------|
C---------8------------10-----12----------------------------------------|
G---------8------------10-----12----------------------------------------|
C---------8------------10-----12----------------------------------------|




Riff 3 (With Riff 1 underneath

D-----------------------------------------------------------------------|
A-----------------------------------------------------------------------|
F-----------------------------------------------------------------------|
C--0000-6-0-0-0-0-6-----0000-6--0-0-65-0-0-5-3-0------------------------|   x4
G--0000-6-0-0-0-0-6-----0000-6--0-0-65-0-0-5-3-0------------------------|
C--0000-6-0-0-0-0-6-----0000-6--0-0-65-0-0-5-3-0------------------------|




Silence 1.32-1.40



Riff 2 with Riff 1 underneath
Riff 1
Riff 2 with Riff 1 underneath
Riff 1

Riff 2 with Riff 4 Underneath

Riff 4

Riff 3 x4