Hantjis Myke - Emily Chords & Tabs

 

Emily Chords & Tabs

Hantjis Myke Chords & Tabs

Version: 1 Type: Tab 0 ratings
1 star 2 stars 3 stars 4 stars 5 stars
comments

Emily Tab

this is a pretty tight song i made up myself about some girl i know (so yeah, it is a "love song"),
hope you like it, any suggestions on it, e-mail me at AFCrew712@aol.com

(sounds best with an acoustic)

e|--------0---------------0-------------0-----------------
b|------1---1-----------1---1---------1---1---------------
g|----0-------0-------0-------0-----0-------0-------------
d|--------------------------------------------------------
a|--3--------------2--------------0-----------------------
E|--3--------------3--------------0-----------------------
[ Tab from: http://www.guitartabs.cc/tabs/h/hantjis_myke/emily_tab.html ]
e|---------------------
b|---1---1-------------
g|--0---0--------------
d|-3---0--------------- then just repeat that
a|---------3-----------
E|---------3-----------


theres a bunch of different ways you could do the same basic song, for example

e|-------0--------------0---------------0----------------
b|-1---1---1-----0----0---0----0h1----1---1--------------
g|---0-------0------0-------0-------0-------0------------
d|-------------------------------------------------------
a|-3-------------2-------------0-------------------------
E|-------------------------------------------------------

and if you don't like either of those, just try messin around with the 
g, b, and e strings on 0, 1, 0

have fun

mike
Comments