Hanson - Lost Without Each Other Chords & Tabs

 

Lost Without Each Other Chords & Tabs

Hanson Chords & Tabs

Version: 2 Type: Tab 0 ratings
1 star 2 stars 3 stars 4 stars 5 stars
comments

Lost Without Each Other Tab

Artist: Hanson
Title: Lost Without Each Other (Solo)
Tabbed by: stringping
Tuning: EADGBe (Standard)


Tab Legend: b = Bend
            h = hold bend and pick the string
            ~ = vibrato
[ Tab from: http://www.guitartabs.cc/tabs/h/hanson/lost_without_each_other_tab_ver_2.html ]
e|-7-----------------------------------------7-7----------7-7--------------------------------------|
B|-7-(tremolo pick for about 2 measures)-8b9h9h9-------8bh9h9--------------------------------------|
G|-----------------------------------------------9-6-9--------9-6-9-11b13-11b13-11b13-11b13-9-11~--|
D|-------------------------------------------------------------------------------------------------|
A|-------------------------------------------------------------------------------------------------|
E|-------------------------------------------------------------------------------------------------|

e|-----------------14-------------------------------------14b15h15h15-12--12-14b15h15h15-12--12-----|
B|-------9-10-12~--12-(tremolo pick for about 2 measures)---------------14-----------------14--14~~-|
G|-9-11---------------------------------------------------------------------------------------------|
D|--------------------------------------------------------------------------------------------------|
A|--------------------------------------------------------------------------------------------------|
E|--------------------------------------------------------------------------------------------------|

enjoy!
Comments