Hansen Matt - Acoustic Love Chords & Tabs

 

Acoustic Love Chords & Tabs

Hansen Matt Chords & Tabs

Version: 1 Type: Tab 0 ratings
1 star 2 stars 3 stars 4 stars 5 stars
comments

Acoustic Love Tab

   
Acoustic Love
Matt Hansen

This is my first tab, written by me, hope you enjoy it.

[ Tab from: http://www.guitartabs.cc/tabs/h/hansen_matt/acoustic_love_tab.html ]
  G                 D                           Am
e:--------3--------------------2h3p2------------------------0--------|
B:----3-----3---3---------3-----------3---3-----------1--------1---1-|
G:--0---0-----0--------2----2-----------2----------2-----2-------2---|
D:------------------0---------------------------2--------------------|
A:-------------------------------------------------------------------|
E:3------------------------------------------------------------------|

  F
e:---------1---------------------------------------------------------|
B:----1------1---1---------------------------------------------------|
G:--2---2------2-----------------------------------------------------|
D:3------------------------------------------------------------------|
A:-------------------------------------------------------------------|
E:-------------------------------------------------------------------|

Repeat this as much as you want then just strum the cords.
Comments