Hans Zimmer - Duduk Of The North Chords & Tabs

 

Duduk Of The North Chords & Tabs

Hans Zimmer Chords & Tabs

Version: 1 Type: Tab 0 ratings
1 star 2 stars 3 stars 4 stars 5 stars
comments

Duduk Of The North Tab

This Is The Guitar Solo After Djivan Plays The Duduk Part: Standard Tuning To My Knowlege


e-------------------------------------------------------------|
b-------------------------------------------------------------|
g----------------------------5-------5------------------------|
d------8h7h8---8h7h8---8h7h8---8h7h8----7h5h7---7h8h7-5---5-7-| rep.
a-----5--------------5------------------------5---------8-----|
e-------------------------------------------------------------|

e-------------------------------------------------------------------------|
b-------------------------------------------------------------------------|
g-------------------------------------------------------------------------|
d-------7-5------5------5-7-5---------------------------------------------|
a-----8-----8-6-8--6--8------8--6-5---5-6--5---------------------5-6h5--5-|
e-----------------------------------8--------8-6-5--6h5h3h5--6-8-------8--|
[ Tab from: http://www.guitartabs.cc/tabs/h/hans_zimmer/duduk_of_the_north_tab.html ]
e-------------------------------------------------------------------------|
b-------------------------------------------------------------------------|
g-----------------------------5-------------------------------------------|
d------5--7h5-5---8-7-7h6h7-----8h7h8--7h8-7-5--5-7--5-5------------------|
a--6-8----------5------------5-------5--------8----5--8--6h5h6--(5-6h5-5)-|X3
e-------------------------------------------------------8-----5-(-----8---|

e------------------------------------------------------------------------|
b-------------------------------5----------------------------------------|
g-8h7h8---8h7h8----8h7h8--8h7h8--7h5h7--7h8h7h5-5-7--7-5-----5----5-7-5--|
d-------------------------------------5--------8----8---8-6-8--6-8-----8-|
a------------------------------------------------------------------------|
e------------------------------------------------------------------------|

e------------------------------------------------------------------------|
b------------------------------------------------6-8---------------------|
g-------------------------------------------5-7-8---8h7-7h8h7-5-5-7--5-5-|
d--6h5-5-6--5----------------5-6h5-5---5-6-8-----------5-------8---5--8--|
a-----8------8-6-5-6h5-5--6-8-----8--------------------------------------|
e---------------------8--------------------------------------------------|

e--------------------------------------------|
b--------------------------------------------|
g--------------------------------------------|
a---6h5h6--5h6h5-----5-5h6h5-----5-----------|
e--8-----5------8-6-8-5-----8-6-8-8-6-5-6h5--|
e------------------------------------------3-|
Comments