Handsome Devil - Makin Money Chords & Tabs

 

Makin Money Chords & Tabs

Handsome Devil Chords & Tabs

Version: 3 Type: Tab 0 ratings
1 star 2 stars 3 stars 4 stars 5 stars
comments

Makin Money Tab

Im new to this, so I guess I should say this is for 
educational purposes, and the work is copyrighted and 
such, I dunno just don't sue me please.

Handsime Devil
Makin Money
Tabbed by Pimpmaster Max

Intro

----------------------------------
----1-0-1---1-0-1---1-0-1-3-1-0-1-
--0-------1-------2--------------- x4
----------------------------------
----------------------------------
----------------------------------

after 4th time, slide 1 up to 5

Verses/Chorus

for verse palm mute, for chorus let off a little bit
[ Tab from: http://www.guitartabs.cc/tabs/h/handsome_devil/makin_money_tab_ver_3.html ]
----------------------------------
----------------------------------
-5-5-5---------------------------- repeat throughout
-5-5-5---2-2-2---3-3-3---5-5-5---- pretty basic really
-3-3-3---2-2-2---3-3-3---5-5-5----
---------0-0-0---1-1-1---3-3-3----

Sorry guys, I don't know the solo, but just play the
chorus behind it while you try to figure it out.  Also
after he sings "You make me laugh," 4 times or whatever
play the intro again...listen to the song, you'll here it.

This is my first of hopefully many tabs...have fun with it 
and download the song, it's worth it.

Any questions email me at diskostudd@yahoo.com

Have a good one
Comments