Handsome Devil - Makin Money Chords & Tabs

 

Makin Money Chords & Tabs

Handsome Devil Chords & Tabs

Version: 2 Type: Tab 0 ratings
1 star 2 stars 3 stars 4 stars 5 stars
comments

Makin Money Tab

Song:	   Makin' Money (You Make Me Laugh)
Artist:	   Handsome Devil
Album:	   Love and Kisses From the Underground
Tabbed by: David Pritchard (scatman_dave@hotmail.com)

standard tuning (EADBGe)

This is a fairly easy song, but if you want to play it right 2 guitars are necessary.
Everything in this tab should be right, except i'm not sure about the prechorus and i'm
too damn lazy to tab the solos. Have fun!

Intro/Main Riff
(x3) [Guitar 1 or both]
e:----------------------------------------------------------------------------
B:----------------------------------------------------------------------------
G:0--5--4--5-----5--4--5-----5--4--5--7--5--4--5------------------------------
D:------------6-----------7---------------------------------------------------
A:----------------------------------------------------------------------------
E:----------------------------------------------------------------------------

(x1)
e:----------------------------------------------------------------------------
B:------------------------------------------------5>hold----------------------
G:0--5--4--5-----5--4--5-----5--4--5--7--5--4--5------------------------------
D:------------6-----------7---------------------------------------------------
A:----------------------------------------------------------------------------
E:----------------------------------------------------------------------------

(pick slide)

Bridge (Well i'm not nitty, and i'm not pretty...)
[Guitar 1]
e:----------------------------------------------------------------------------
B:----------------------------------------------------------------------------
G:5--5--5--5--5--5--5--5--5--5--5--5--5--5--5--5--5--5--5--5--5--5--5--5------
D:5--5--5--5--5--5--5--5--5--5--5--5--5--5--5--5--5--5--5--5--5--5--5--5------
A:3--3--3--3--3--3--3--3--3--3--3--3--3--3--3--3--3--3--3--3--3--3--3--3------
E:----------------------------------------------------------------------------
P.M....   ......   ......   ......   ......   ......   ......   ......

e:----------------------------------------------------------------------------
B:----------------------------------------------------------------------------
G:5--5--5--5--5--5--5--5--5--5--5--5--5------5--------------------------------
D:5--5--5--5--5--5--5--5--5--5--5--5--5------5-------5-------3-------5--------
A:3--3--3--3--3--3--3--3--3--3--3--3--3------3-------5-------3-------5--------
E:---------------------------------------------------3-------1-------3--------
P.M....   ......   ......   ......  
[ Tab from: http://www.guitartabs.cc/tabs/h/handsome_devil/makin_money_tab_ver_2.html ]
[Guitar 2]
e:----------------------------------------------------------------------------
B:----------------------------------------------------------------------------
G:----------------------------------------------------------------------------
D:----------------------------------------------------------------------------
A:----------------------------------------------------------------------------
E:----------------------------------------------------------------------------

e:----------------------------------------------------------------------------
B:----------------------------------------------------------------------------
G:0-------5-------4---------7-------------------------5-------4------5--------
D:--------------------------------------------6-------------------------------
A:----------------------------------------------------------------------------
E:----------------------------------------------------------------------------

Prechorus (I get it, i'm funny...)
(x3)[Guitar 1 or both]
e:----------------------------------------------------------------------------
B:----------------------------------------------------------------------------
G:5---------------------------------------------------------------------------
D:5------------3-------------5-------------5--5--5----------------------------
A:3------------3-------------5-------------5--5--5----------------------------
E:-------------1-------------3-------------7--7--7----------------------------
P.M.                                       .......

Chorus (You make me laugh...)
(x2) [Guitar 1 or both]
e:----------------------------------------------------------------------------
B:----------------------------------------------------------------------------
G:0--5--4--5-----5--4--5-----5--4--5--7--5--4--5------------------------------
D:------------6-----------7---------------------------------------------------
A:----------------------------------------------------------------------------
E:----------------------------------------------------------------------------

(x1)
e:----------------------------------------------------------------------------
B:------------------------------------------------5>hold----------------------
G:0--5--4--5-----5--4--5-----5--4--5--7--5--4--5------------------------------
D:------------6-----------7---------------------------------------------------
A:----------------------------------------------------------------------------
E:----------------------------------------------------------------------------

(Pickslide)

Song order:

Intro
Verse
Bridge
Prechorus
Chorus
Verse
Bridge
Prechorus
Chorus
Solo (not tabbed)
Main riff (x2)
Chorus
outro solo (not tabbed)
Comments