Handsome Devil - Makin Money Chords & Tabs

 

Makin Money Chords & Tabs

Handsome Devil Chords & Tabs

Version: 1 Type: Tab 0 ratings
1 star 2 stars 3 stars 4 stars 5 stars
comments

Makin Money Tab

Handsome Devil - Makin' Money

Tabbed by Eriekio the Mulletboy! (eriekio@hotmail.com)


Intro(both guitars):

1|-------------------------------
2|-------------------------------
3|0-5-4-5-1-5-4-5-2-5-4-5-7-5-4-5
4|-------------------------------
5|-------------------------------
6|-------------------------------

Verse(Guitar 1):

1|-------------------
2|-------------------
3|5-5-9-9-10-10-12-12
4|5-5-9-9-10-10-12-12
5|3-3-7-7--8--8-10-10
6|-------------------

Verse(Guitar 2):

1|-------
2|-------
3|0-5-2-7
4|-------
5|-------
6|-------

Solo(Guitar 2):
[ Tab from: http://www.guitartabs.cc/tabs/h/handsome_devil/makin_money_tab.html ]
1|3-1-0---0---0-1---------------12-15-11-12-11-12-17-15-14-13-12
2|------3---3-----1-*5-5-3-3-*5---------------------------------
3|--------------------------------------------------------------
4|--------------------------------------------------------------
5|--------------------------------------------------------------
6|--------------------------------------------------------------

1|12-15-*12-15-17-16-14-13-12-10-7-5--10-10-10-10-17-17-17-15
2|-----------------------------------------------------------
3|-----------------------------------------------------------
4|-----------------------------------------------------------
5|-----------------------------------------------------------
6|-----------------------------------------------------------

End Solo(Guitar 2):

1|------------------------8-8-----8-----8-8-8--
2|3-*3-3-*3-3-*3-8-*8-8-8-----8-8---8-8-------8
3|---------------------------------------------
4|---------------------------------------------
5|---------------------------------------------
6|---------------------------------------------

*bend string


Listen for muting and timeing in the song.

(Verse Guitar 1 is played through out the whole song except for 
 when neither guitar is played [bass part between intro and verse]) 

if you have any corrections email me!
Comments