Handsome Devil - Everything Chords & Tabs

 

Everything Chords & Tabs

Handsome Devil Chords & Tabs

Version: 1 Type: Tab 0 ratings
1 star 2 stars 3 stars 4 stars 5 stars
comments

Everything Tab

                             HANDSOME DEVIL
                               EVERYTHING

STANDARD TUNING
EADGBE


-----------------------------------------------------------------------|
-----------------------------------------------------------------------|
-------------------5-5-5-5-7-7-7-7-----------------5-5-5-5-7-7-7-7-----|
---5-5-5-5-3-3-3-3-5-5-5-5-7-7-7-7-5-5-5-5-3-3-3-3-5-5-5-5-7-7-7-7-----|X2
---5-5-5-5-3-3-3-3-3-3-3-3-5-5-5-5-5-5-5-5-3-3-3-3-3-3-3-3-5-5-5-5-----|
---3-3-3-3-1-1-1-1-----------------3-3-3-3-1-1-1-1---------------------|

-----------------------------------|
-----------------------------------|
-----3-3------5-5------3-3---------|
--5/-3-3-3-3--5-5-5-5/-3-3-3-3-----|X2
--5/-1-1-3-3--3-3-5-5/-1-1-3-3-----|
--3/-----1-1------3-3/-----1-1-----|

-------------------------------------|
----------------------10-10-----10---|
--5-5-5-5-5-5-5-5-12b-------12b------|
--5-5-5-5-5-5-5-5--------------------|
--3-3-3-3-3-3-3-3--------------------|
-------------------------------------|
[ Tab from: http://www.guitartabs.cc/tabs/h/handsome_devil/everything_tab.html ]
-----------------------------------------------------------------------|
-----------------------------------------------------------------------|
-------------------5-5-5-5-7-7-7-7-----------------5-5-5-5-7-7-7-7-----|
---5-5-5-5-3-3-3-3-5-5-5-5-7-7-7-7-5-5-5-5-3-3-3-3-5-5-5-5-7-7-7-7-----|X2
---5-5-5-5-3-3-3-3-3-3-3-3-5-5-5-5-5-5-5-5-3-3-3-3-3-3-3-3-5-5-5-5-----|
---3-3-3-3-1-1-1-1-----------------3-3-3-3-1-1-1-1---------------------|

-----------------------------------|
-----------------------------------|
-----3-3------5-5------3-3---------|
--5/-3-3-3-3--5-5-5-5/-3-3-3-3-----|X2
--5/-1-1-3-3--3-3-5-5/-1-1-3-3-----|
--3/-----1-1------3-3/-----1-1-----|

-------------------------------------|
----------------------10-10-----10---|
--5-5-5-5-5-5-5-5-12b-------12b------|
--5-5-5-5-5-5-5-5--------------------|
--3-3-3-3-3-3-3-3--------------------|
-------------------------------------|

solo
-------------------------------14b----------------------------------------|
----------------------------12--------------------------------------------|
--------------------------------------------------------------------10b---|
--12---9---12---9-----10/12---------10b-10br8-10-8--10brbrbrbrbr10p8------|
----10--10---10---10------------------------------------------------------|
--------------------------------------------------------------------------|

thats it
peace
Comments