Handsome Devil - Bring It On Chords & Tabs

 

Bring It On Chords & Tabs

Handsome Devil Chords & Tabs

Version: 1 Type: Tab 0 ratings
1 star 2 stars 3 stars 4 stars 5 stars
comments

Bring It On Tab

Bring it on
This is a tab for the song bring it on by handsome devil. I have not seen any other
tabs for this song yet so I decided to make my own. Tabbed by otherrandomhero
intro
E|-------------|-333-b444-b44-3---------------------------------------|
B|-------------|----------------3-1-----------------------------------|
G|-------------|--------------------2---------------------------------|
D|-------7-5-2-|------------------------------------------------------|
A|-7-5-2-5-3-0-|------------------------------------------------------|
E|-5-3-0-------|------------------------------------------------------|
Verse1
 After the 2nd verse riff strum the chords 4 times alternating palm muting          
                                                                              
...I don't wanna hear about your...
E|-------------------------------------|------------------------------|
B|-------------------------------------|------------------------------|
G|-------------------------------------|------------------------------|
D|----------77777777-99999999-77777777-|------------------------------|
A|-77777777-55555555-77777777-55555555-|---4---5-4---7--5-------------|
E|-55555555----------------------------|-5---5-----5------------------|
  .....................................
       ...Try as you might...                                    chorus
E|--------------------|-------------------------|---------------------|
B|--------------------|-------------------------|---------------------|
G|--------------------|-------------------------|---------------------|
D|-6------------------|----------7777-----------|---------------------|
A|-4--7--7--22222222--|-----7777-5555-2222-4444-|-7-7-7-7-7-7-7-7-----|
E|----5--5--00000000--|-----5555------0000-2222-|x5x5x5x5x5x5x5x5-----|

E|-------------|-333-b444-b44-3---------------------------------------|
B|-------------|-333------------3-1-----------------------------------|
G|-------------|--------------------2---------------------------------|
D|-------7-5-2-|------------------------------------------------------|
A|-7-5-2-5-3-0-|------------------------------------------------------|
E|-5-3-0-------|------------------------------------------------------|
[ Tab from: http://www.guitartabs.cc/tabs/h/handsome_devil/bring_it_on_tab.html ]
Verse2
E|-------------------------------------|------------------------------|
B|-------------------------------------|------------------------------|
G|-------------------------------------|------------------------------|
D|----------77777777-99999999-77777777-|------------------------------|
A|-77777777-55555555-77777777-55555555-|---4---5-4---7--5-------------|
E|-55555555----------------------------|-5---5-----5------------------|
  .....................................
E|-------------|-333-b444-b44-3---------------------------------------|
B|-------------|-333------------3-1-----------------------------------|
G|-------------|--------------------2---------------------------------|
D|-------7-5-2-|------------------------------------------------------|
A|-7-5-2-5-3-0-|------------------------------------------------------|
E|-5-3-0-------|------------------------------------------------------|

solo
E|-------0-------2----------------------------------------------------|
B|------2-------3-----------------------------------------------------|
G|-----2-------2------------------------------------------------------|
D|--------------------------------------------------------------------|
A|-777----777------6666-6666-6666-6666-7777---------------------------|
E|-555----444------4444-4444-4444-4444-5555---------------------------|
                    ..   ..   ..   ..

           Solo cont.                            guitar 2
E|-555-553------------------------------|-----------------------------|
B|---------3-1-----------1---1-3-b3-1---|-----------------------------|
G|-------------2--222-22---2----------2-|-----------------------------|
D|--------------------------------------|-------7-5-2-----------------|
A|--------------------------------------|-7-5-2-5-3-0-----------------|
E|--------------------------------------|-5-3-0-----------------------|	


E|--------------------|-------------------------|---------------------|
B|--------------------|-------------------------|---------------------|
G|--------------------|-------------------------|---------------------|
D|-6------------------|----------7777-----------|---------------------|
A|-4--7--7--22222222--|-----7777-5555-2222-4444-|-7-7-7-7-7-7-7-7-----|
E|----5--5--00000000--|-----5555------0000-2222-|x5x5x5x5x5x5x5x5-----|


E|--------------------------------------------------------------------|
B|--------------------------------------------------------------------|
G|--------------------------------------------------------------------|
D|------7777----------------------------------------------------------|
A|-7777-5555-2222-4444--7-7-7-7-7-7-7-7-7-7-7-7-7-7-7-7---------------|
E|-5555------0000-2222-x5x5x5x5x5x5x5x5x5x5x5x5x5x5x5x5---------------|

E|-------------|-333-b444-b44-3---------------------------------------|
B|-------------|----------------3-1-----------------------------------|
G|-------------|--------------------2---------------------------------|
D|-------7-5-2-|------------------------------------------------------|
A|-7-5-2-5-3-0-|------------------------------------------------------|
E|-5-3-0-------|------------------------------------------------------|

That's it! Any questions or comments please email me at snowboardchin@mn.rr.com
Comments