Handsome Devil - Barbecue Chords & Tabs

 

Barbecue Chords & Tabs

Handsome Devil Chords & Tabs

Version: 1 Type: Tab 0 ratings
1 star 2 stars 3 stars 4 stars 5 stars
comments

Barbecue Tab

                            HANDSOME DEVIL
                               BARBECUE


STANDARD TUNING
EADGBe

-------------------------------------------------------|
-------------------------------------------------------|
--2-2-2-2-2-2-2--------------7-7-7-7-------------------|
--2-2-2-2-2-2-2-2------------7-7-7-7-9-9-7-7-6-6-4-4---|x2
--0-0-0-0-0-0-0-2--2-0-2-4-0-5-5-5-5-7-7-5-5-4-4-2-2---|
----------------0--------------------------------------|

palm muted
-------------------------------------------------------------------|
-------------------------------------------------------------------|
-------------------------------------------------------------------|
--2-2-2-2-2-2-2-2-----------------7-7-7-7-7-7-7-7-9-9-9-9-9-9-9-9--|x2
--0-0-0-0-0-0-0-0-2-2-2-2-2-2-2-2-5-5-5-5-5-5-5-5-7-7-7-7-7-7-7-7--|
------------------0-0-0-0-0-0-0-0----------------------------------|

--------------------------------------------------------|
--------------------------------------------------------|
--4-4-4-4---------6-6-6-6----------7-7-7-7-7-7-7/9-9----|
--4-4-4-4-2-2-2-2-6-6-6-6-7-7-7-7--7-7-7-7-7-7-7/9-9----|
--2-2-2-2-2-2-2-2-4-4-4-4-7-7-7-7--5-5-5-5-5-5-5/7-7----|
----------0-0-0-0---------5-5-5-5-----------------------|

-------------------------------------|
-------------------------------------|
------------------7-7-7-7-9-9-9-9----|
--9-9-9-9-7-7-7-7-7-7-7-7-9-9-9-9----|
--9-9-9-9-7-7-7-7-5-5-5-5-7-7-7-7----|
--7-7-7-7-5-5-5-5--------------------|
[ Tab from: http://www.guitartabs.cc/tabs/h/handsome_devil/barbecue_tab.html ]
-------------------------------------------------------|
-------------------------------------------------------|
--2-2-2-2-2-2-2--------------7-7-7-7-------------------|
--2-2-2-2-2-2-2-2------------7-7-7-7-9-9-7-7-6-6-4-4---|x2
--0-0-0-0-0-0-0-2--2-0-2-4-0-5-5-5-5-7-7-5-5-4-4-2-2---|
----------------0--------------------------------------|

palm muted
-------------------------------------------------------------------|
-------------------------------------------------------------------|
-------------------------------------------------------------------|
--2-2-2-2-2-2-2-2-----------------7-7-7-7-7-7-7-7-9-9-9-9-9-9-9-9--|x2
--0-0-0-0-0-0-0-0-2-2-2-2-2-2-2-2-5-5-5-5-5-5-5-5-7-7-7-7-7-7-7-7--|
------------------0-0-0-0-0-0-0-0----------------------------------|

--------------------------------------------------------|
--------------------------------------------------------|
--4-4-4-4---------6-6-6-6----------7-7-7-7-7-7-7/9-9----|
--4-4-4-4-2-2-2-2-6-6-6-6-7-7-7-7--7-7-7-7-7-7-7/9-9----|
--2-2-2-2-2-2-2-2-4-4-4-4-7-7-7-7--5-5-5-5-5-5-5/7-7----|
----------0-0-0-0---------5-5-5-5-----------------------|

-------------------------------------|
-------------------------------------|
------------------7-7-7-7-9-9-9-9----|
--9-9-9-9-7-7-7-7-7-7-7-7-9-9-9-9----|
--9-9-9-9-7-7-7-7-5-5-5-5-7-7-7-7----|
--7-7-7-7-5-5-5-5--------------------|

then strum these around a little
----------2---------|
----2-----3--5------|
----2--1--2--4------|
----2--2-----2------|
----0--2------------|
-------0------------|

-------------------------------------|
-------------------------------------|
------------------7-7-7-7-9-9-9-9----|
--9-9-9-9-7-7-7-7-7-7-7-7-9-9-9-9----|x4
--9-9-9-9-7-7-7-7-5-5-5-5-7-7-7-7----|
--7-7-7-7-5-5-5-5--------------------|

thats it
easy song peace
Comments