Hancock Herbie - Chameleon Chords & Tabs

 

Chameleon Chords & Tabs

Hancock Herbie Chords & Tabs

Version: 3 Type: Bass Tab 0 ratings
1 star 2 stars 3 stars 4 stars 5 stars
comments

Chameleon Bass Tab

Song: Chameleon
Artist: Herbie Hancock
Album: Headhunters

This song kicks ass and is the best song ever written... 
the bass lines too boring thought

Notes: I went over this with my teacher to it should be pretty close

main riff
G:------------------------6-8
D:----------6-8--------------
A:---------------3-4-5-6-----    repeat until you deaths falls upon you
E:-3-4-5-6-------------------
[ Tab from: http://www.guitartabs.cc/tabs/h/hancock_herbie/chameleon_btab_ver_3.html ]
cool part
G:-8s10s8--6s8s6--6-8-6--------
D:----------------------8------
A:------------------------6----
E:--------------------------7-6

cool part at another part
just do the same only with
G:-----     -9-11-
D:-6-8-     ------
A:----- and ------
E:-----     ------

other groove

E:-4-5-6-9-6-9-6-9 and repeat

ok i dont know if cool part at another part and other groove are correct
but thy sounded right to me. but i wasnt playing along but they shuold
be close

heres to music for music

stu
Comments