Hammill Josh - You Suck Chords & Tabs

 

You Suck Chords & Tabs

Hammill Josh Chords & Tabs

Version: 1 Type: Tab 0 ratings
1 star 2 stars 3 stars 4 stars 5 stars
comments

You Suck Tab


Song: You suck
Artist: Josh Hammill........(and kind of Jeff Egan)
File type: Tab
Submitted by: Josh Hammill

Intro:-----

-------------------------------------------------------------------------------
----------------------------------------------------------------------------
-----------------------------------------------------------------------------
-7-7-5-4-2-0-4-4-4/5-4-2-0-2-2-4/5-4-2-0-4-4-0-2-------------------------------------------------------
-5-5---------2-2-----------0-0-----------2-2-0-0-----------------------------------------
---------------------------0-0---------------0-0---------------------------------

Verse:-----
[ Tab from: http://www.guitartabs.cc/tabs/h/hammill_josh/you_suck_tab.html ]
-------------------------------------------------------------------------------
----------------------------------------------------------------------------
------------------------------------------------------------------------------
-7-7-7-7-7-7-7-7-0-4-4-4-4-4-4-4-4-0-2-2-2-2-2-2-2-2-0-4-4-0-2-----------------------------------------------
-5-5-5-5-5-5-5-5-0-2-2-2-2-2-2-2-2-0-0-0-0-0-0-0-0-0-0-2-2-0-0----------------------------------------------
-----------------0-----------------0-0-0-0-0-0-0-0-0-0-----0-0----------------------

Merci Mr.Boueniver. Je'me la guitare. Tu et petit bonner(Sean Symondson)!!!!!
I hope you like my tab. It took me along time to right it. See you later!

Comments