Hammerfall - Way Of The Warrior Chords & Tabs

 

Way Of The Warrior Chords & Tabs

Hammerfall Chords & Tabs

Version: 1 Type: Bass Tab 0 ratings
1 star 2 stars 3 stars 4 stars 5 stars
comments

Way Of The Warrior Bass Tab

Six-string Bass Guitar! Enjoy!

C||---------------|--------------|--------------|--------------|---------------|
G||---------------|--------------|--------------|--------------|---------------|
D||---------------|--------------|--------------|--------------|---------------|
A||---------------|--------------|--------------|--------------|---------------|
E||--0------------|--------------|--------------|--------------|--5------------|
B||---------------|--------------|--------------|--------------|---------------|


                                                                               
--------------|--------------|-----------------|---------------|--------------|
--------------|--------------|-----------------|---------------|--------------|
--------------|--------------|-----------------|---------------|--------------|
--------------|--------------|--------3--5--2--|---------------|--------------|
--------------|--------------|-----------------|--0------------|--------------|
--------------|--------------|-----------------|---------------|--------------|


                                                                                
--------------|--------------|---------------|-----------------|---------------|
--------------|--------------|---------------|-----------------|---------------|
--------------|--------------|---------------|-----------------|---------------|
--------------|--------------|---------------|--------3--5--2--|--0------------|
--------------|--------------|--5------------|-----------------|---------------|
--------------|--------------|---------------|-----------------|---------------|


                                                               
--------------------|--------------------|--------------------|
--------------------|--------------------|--------------------|
--------------------|--------------------|--------------------|
--3--5--2--3--5--2--|--------------------|--------------------|
--------------------|--0--0--0--0--0--0--|--0--0--0--3--5--2--|
--------------------|--------------------|--------------------|


                                                               
--------------------|--------------------|--------------------|
--------------------|--------------------|--------------------|
--------------------|--------------------|--------------------|
--------------------|--------------------|--0--0--0--0--0--0--|
--0--0--0--0--0--0--|--0--0--0--3--5--2--|--------------------|
--------------------|--------------------|--------------------|


                                                                                
--------------------|--------------------|--------------------|----------------|
--------------------|--------------------|--------------------|----------------|
--------------------|--------------------|--------------------|----------------|
--0--0--0--3--5--2--|--0--0--0--0--0--0--|--3--5--2--3--5--2--|--7------7------|
--------------------|--------------------|--------------------|----------------|
--------------------|--------------------|--------------------|----------------|


                                                                    
----------------|----------------|----------------|----------------|
----------------|----------------|----------------|----------------|
----------------|----------------|----------------|----------------|
--7------7------|--3------3------|--5------5------|--7------7------|
----------------|----------------|----------------|----------------|
----------------|----------------|----------------|----------------|


                                                                    
----------------|----------------|----------------|----------------|
----------------|----------------|----------------|----------------|
----------------|----------------|----------------|----------------|
--7------7------|--3------3------|--5------5------|--7------7------|
----------------|----------------|----------------|----------------|
----------------|----------------|----------------|----------------|


                                                                    
----------------|----------------|----------------|----------------|
----------------|----------------|----------------|----------------|
----------------|----------------|----------------|----------------|
--7------7------|--3------3------|--5------5------|--7------7------|
----------------|----------------|----------------|----------------|
----------------|----------------|----------------|----------------|


                                                                        
----------------|----------------|----------------|--------------------|
----------------|----------------|----------------|--------------------|
----------------|----------------|----------------|--------------------|
--7------7------|--3------3------|--5------5------|--------------------|
----------------|----------------|----------------|--7--7--7--7--7--7--|
----------------|----------------|----------------|--------------------|


                                                                          
--------------------|--------------------|---------------|---------------|
--------------------|--------------------|---------------|---------------|
--------------------|--------------------|---------------|---------------|
--------------------|--------------------|---------------|---------------|
--7--7--7--7--7--7--|--7--7--7--7--7--7--|--3------------|--0------------|
--------------------|--------------------|---------------|---------------|


                                                                          
--------------------|--------------------|---------------|---------------|
--------------------|--------------------|---------------|---------------|
--------------------|--------------------|---------------|---------------|
--------------------|--------------------|---------------|---------------|
--7--7--7--7--7--7--|--7--7--7--7--7--7--|--3------------|--5------------|
--------------------|--------------------|---------------|---------------|


                                                                      
------------------|--------------|------------------|----------------|
------------------|--------------|------------------|----------------|
------------------|--------------|------------------|----------------|
--7--7--5--7------|--------------|--7--7--5--7------|--3------5------|
------------------|--------------|------------------|----------------|
------------------|--------------|------------------|----------------|


                                                                  
------------------|--------------|---------------|---------------|
------------------|--------------|---------------|---------------|
------------------|--------------|---------------|---------------|
--7--7--5--7------|--------------|---------------|--5------------|
------------------|--------------|--5------------|---------------|
------------------|--------------|---------------|---------------|


                                                                      
------------------|--------------|------------------|----------------|
------------------|--------------|------------------|----------------|
------------------|--------------|------------------|----------------|
--7--7--5--7------|--------------|--7--7--5--7------|--3------5------|
------------------|--------------|------------------|----------------|
------------------|--------------|------------------|----------------|


                                                                   
------------------|--------------|---------------|----------------|
------------------|--------------|---------------|----------------|
------------------|--------------|---------------|----------------|
--7--7--5--7------|--------------|--5------------|--0-------------|
------------------|--------------|---------------|---------3------|
------------------|--------------|---------------|----------------|


                                                                             
---------------|--------------|--------------|--------------|---------------|
---------------|--------------|--------------|--------------|---------------|
---------------|--------------|--------------|--------------|---------------|
---------------|--------------|--------------|--------------|--0------------|
--0------------|--------------|--------------|--------------|---------------|
---------------|--------------|--------------|--------------|---------------|


                                                                        
-----------------|---------------|--------------------|----------------|
-----------------|---------------|--------------------|----------------|
-----------------|---------------|--------------------|----------------|
--------3--5--2--|---------------|--3--5--2--3--5--3--|--7------7------|
-----------------|--5------------|--------------------|----------------|
-----------------|---------------|--------------------|----------------|


                                                                    
----------------|----------------|----------------|----------------|
----------------|----------------|----------------|----------------|
----------------|----------------|----------------|----------------|
--7------7------|--3------3------|--5------5------|--7------7------|
----------------|----------------|----------------|----------------|
----------------|----------------|----------------|----------------|


                                                                    
----------------|----------------|----------------|----------------|
----------------|----------------|----------------|----------------|
----------------|----------------|----------------|----------------|
--7------7------|--3------3------|--5------5------|--7------7------|
----------------|----------------|----------------|----------------|
----------------|----------------|----------------|----------------|


                                                                    
----------------|----------------|----------------|----------------|
----------------|----------------|----------------|----------------|
----------------|----------------|----------------|----------------|
--7------7------|--3------3------|--5------5------|--7------7------|
----------------|----------------|----------------|----------------|
----------------|----------------|----------------|----------------|


                                                                        
----------------|----------------|----------------|--------------------|
----------------|----------------|----------------|--------------------|
----------------|----------------|----------------|--------------------|
--7------7------|--3------3------|--5------5------|--------------------|
----------------|----------------|----------------|--7--7--7--7--7--7--|
----------------|----------------|----------------|--------------------|


                                                                          
--------------------|--------------------|---------------|---------------|
--------------------|--------------------|---------------|---------------|
--------------------|--------------------|---------------|---------------|
--------------------|--------------------|---------------|---------------|
--7--7--7--7--7--7--|--7--7--7--7--7--7--|--3------------|--0------------|
--------------------|--------------------|---------------|---------------|


                                                                          
--------------------|--------------------|---------------|---------------|
--------------------|--------------------|---------------|---------------|
--------------------|--------------------|---------------|---------------|
--------------------|--------------------|---------------|--0------------|
--7--7--7--7--7--7--|--7--7--7--7--7--7--|--3------------|---------------|
--------------------|--------------------|---------------|---------------|


                                                                      
------------------|--------------|------------------|----------------|
------------------|--------------|------------------|----------------|
------------------|--------------|------------------|----------------|
--7--7--5--7------|--------------|--7--7--5--7------|--3------5------|
------------------|--------------|------------------|----------------|
------------------|--------------|------------------|----------------|


                                                                  
------------------|--------------|---------------|---------------|
------------------|--------------|---------------|---------------|
------------------|--------------|---------------|---------------|
--7--7--5--7------|--------------|---------------|--5------------|
------------------|--------------|--5------------|---------------|
------------------|--------------|---------------|---------------|


                                                                      
------------------|--------------|------------------|----------------|
------------------|--------------|------------------|----------------|
------------------|--------------|------------------|----------------|
--7--7--5--7------|--------------|--7--7--5--7------|--3------5------|
------------------|--------------|------------------|----------------|
------------------|--------------|------------------|----------------|


                                                                   
------------------|--------------|---------------|----------------|
------------------|--------------|---------------|----------------|
------------------|--------------|---------------|----------------|
--7--7--5--7------|--------------|--5------------|----------------|
------------------|--------------|---------------|--5------3------|
------------------|--------------|---------------|----------------|


                                                                         
---------------|--------------|--------------------|--------------------|
---------------|--------------|--------------------|--------------------|
---------------|--------------|--------------------|--------------------|
---------------|--------------|--4--4--4--4--4--4--|--4--4--4--4--6--7--|
--0------------|--------------|--------------------|--------------------|
---------------|--------------|--------------------|--------------------|


                                                                          
--------------------|---------------|---------------|--------------------|
--------------------|---------------|---------------|--------------------|
--------------------|---------------|---------------|--------------------|
--4--4--4--4--6--7--|--0------------|---------------|--4--4--4--4--4--4--|
--------------------|---------------|--2------------|--------------------|
--------------------|---------------|---------------|--------------------|

[ Tab from: http://www.guitartabs.cc/tabs/h/hammerfall/way_of_the_warrior_btab.html ]
                                                                          
--------------------|---------------|---------------|--------------------|
--------------------|---------------|---------------|--------------------|
--------------------|---------------|---------------|--------------------|
--4--4--4--4--6--7--|---------------|---------------|--4--4--4--4--4--4--|
--------------------|--5------------|--7------------|--------------------|
--------------------|---------------|---------------|--------------------|


                                                                          
--------------------|--------------------|---------------|---------------|
--------------------|--------------------|---------------|---------------|
--------------------|--------------------|---------------|---------------|
--4--4--4--4--6--7--|--4--4--4--4--6--7--|---------------|---------------|
--------------------|--------------------|--5------------|--2------------|
--------------------|--------------------|---------------|---------------|


                                                                          
--------------------|--------------------|---------------|---------------|
--------------------|--------------------|---------------|---------------|
--------------------|--------------------|---------------|---------------|
--4--4--4--4--4--4--|--4--4--4--4--6--7--|---------------|---------------|
--------------------|--------------------|--5------------|--7------------|
--------------------|--------------------|---------------|---------------|


                                                                 
---------------|---------------|---------------|----------------|
---------------|---------------|---------------|----------------|
---------------|---------------|---------------|----------------|
---------------|---------------|--5------------|--3-------------|
--5------------|--3------------|---------------|---------3------|
---------------|---------------|---------------|----------------|


                                                                 
---------------|---------------|----------------|---------------|
---------------|---------------|----------------|---------------|
---------------|---------------|----------------|---------------|
--0------------|---------------|--3-------------|--0------------|
---------------|--3------------|---------1------|---------------|
---------------|---------------|----------------|---------------|


                                                                          
------------------|------------------|------------------|----------------|
------------------|------------------|------------------|----------------|
------------------|------------------|------------------|----------------|
------------------|------------------|--5--5--5--5------|--3-------------|
--5--5--5--5------|--0--0--0--0------|------------------|---------3------|
------------------|------------------|------------------|----------------|


                                                                          
------------------|------------------|----------------|------------------|
------------------|------------------|----------------|------------------|
------------------|------------------|----------------|------------------|
------------------|------------------|--3-------------|------------------|
--5--5--5--5------|--0--0--0--0------|---------3------|--5--5--5--5------|
------------------|------------------|----------------|------------------|


                                                                          
------------------|------------------|------------------|----------------|
------------------|------------------|------------------|----------------|
------------------|------------------|------------------|----------------|
------------------|------------------|--5--5--5--5------|--3-------------|
--5--5--5--5------|--0--0--0--0------|------------------|---------3------|
------------------|------------------|------------------|----------------|


                                                                          
------------------|------------------|----------------|------------------|
------------------|------------------|----------------|------------------|
------------------|------------------|----------------|------------------|
------------------|------------------|--3-------------|------------------|
--5--5--5--5------|--0--0--0--0------|---------3------|--5--5--5--5------|
------------------|------------------|----------------|------------------|


                                                                 
---------------|---------------|---------------|----------------|
---------------|---------------|---------------|----------------|
---------------|---------------|---------------|----------------|
--0------------|---------------|--5------------|--3-------------|
---------------|--3------------|---------------|---------3------|
---------------|---------------|---------------|----------------|


                                                                 
---------------|---------------|----------------|---------------|
---------------|---------------|----------------|---------------|
---------------|---------------|----------------|---------------|
---------------|---------------|--3-------------|---------------|
--5------------|--3------------|---------1------|--5------------|
---------------|---------------|----------------|---------------|


                                                                 
---------------|---------------|---------------|----------------|
---------------|---------------|---------------|----------------|
---------------|---------------|---------------|----------------|
---------------|---------------|--5------------|--3-------------|
--5------------|--3------------|---------------|---------3------|
---------------|---------------|---------------|----------------|


                                                                 
---------------|---------------|----------------|---------------|
---------------|---------------|----------------|---------------|
---------------|---------------|----------------|---------------|
---------------|---------------|--3-------------|---------------|
--5------------|--3------------|---------1------|--5------------|
---------------|---------------|----------------|---------------|


                                                                   
----------------|---------------|----------------|----------------|
----------------|---------------|----------------|----------------|
----------------|---------------|----------------|----------------|
--3------3------|---------------|--7------7------|--7------7------|
----------------|--5------------|----------------|----------------|
----------------|---------------|----------------|----------------|


                                                                    
----------------|----------------|----------------|----------------|
----------------|----------------|----------------|----------------|
----------------|----------------|----------------|----------------|
--3------3------|--5------5------|--7------7------|--7------7------|
----------------|----------------|----------------|----------------|
----------------|----------------|----------------|----------------|


                                                                    
----------------|----------------|----------------|----------------|
----------------|----------------|----------------|----------------|
----------------|----------------|----------------|----------------|
--3------3------|--5------5------|--7------7------|--7------7------|
----------------|----------------|----------------|----------------|
----------------|----------------|----------------|----------------|


                                                                    
----------------|----------------|----------------|----------------|
----------------|----------------|----------------|----------------|
----------------|----------------|----------------|----------------|
--3------3------|--5------5------|--7------7------|--7------7------|
----------------|----------------|----------------|----------------|
----------------|----------------|----------------|----------------|


                                                                            
----------------|----------------|--------------------|--------------------|
----------------|----------------|--------------------|--------------------|
----------------|----------------|--------------------|--------------------|
--3------3------|--5------5------|--------------------|--------------------|
----------------|----------------|--7--7--7--7--7--7--|--7--7--7--7--7--7--|
----------------|----------------|--------------------|--------------------|


                                                                          
--------------------|---------------|---------------|--------------------|
--------------------|---------------|---------------|--------------------|
--------------------|---------------|---------------|--------------------|
--------------------|---------------|---------------|--------------------|
--7--7--7--7--7--7--|--3------------|--0------------|--7--7--7--7--7--7--|
--------------------|---------------|---------------|--------------------|


                                                                          
--------------------|---------------|---------------|--------------------|
--------------------|---------------|---------------|--------------------|
--------------------|---------------|---------------|--------------------|
--------------------|---------------|--0------------|--------------------|
--7--7--7--7--7--7--|--3------------|---------------|--7--7--7--7--7--7--|
--------------------|---------------|---------------|--------------------|


                                                                          
--------------------|--------------------|---------------|---------------|
--------------------|--------------------|---------------|---------------|
--------------------|--------------------|---------------|---------------|
--------------------|--------------------|---------------|---------------|
--7--7--7--7--7--7--|--7--7--7--7--7--7--|--3------------|--0------------|
--------------------|--------------------|---------------|---------------|


                                                                          
--------------------|--------------------|---------------|---------------|
--------------------|--------------------|---------------|---------------|
--------------------|--------------------|---------------|---------------|
--------------------|--------------------|---------------|--0------------|
--7--7--7--7--7--7--|--7--7--7--7--7--7--|--3------------|---------------|
--------------------|--------------------|---------------|---------------|


                                                                      
------------------|--------------|------------------|----------------|
------------------|--------------|------------------|----------------|
------------------|--------------|------------------|----------------|
--7--7--5--7------|--------------|--7--7--5--7------|--3------5------|
------------------|--------------|------------------|----------------|
------------------|--------------|------------------|----------------|


                                                                  
------------------|--------------|---------------|---------------|
------------------|--------------|---------------|---------------|
------------------|--------------|---------------|---------------|
--7--7--5--7------|--------------|---------------|--5------------|
------------------|--------------|--5------------|---------------|
------------------|--------------|---------------|---------------|


                                                                      
------------------|--------------|------------------|----------------|
------------------|--------------|------------------|----------------|
------------------|--------------|------------------|----------------|
--7--7--5--7------|--------------|--7--7--5--7------|--3------5------|
------------------|--------------|------------------|----------------|
------------------|--------------|------------------|----------------|


                                                                   
------------------|--------------|---------------|----------------|
------------------|--------------|---------------|----------------|
------------------|--------------|---------------|----------------|
--7--7--5--7------|--------------|--5------------|--0-------------|
------------------|--------------|---------------|---------3------|
------------------|--------------|---------------|----------------|


                                                                        
------------------|----------------|------------------|----------------|
------------------|----------------|------------------|----------------|
------------------|--5------4------|------------------|----------------|
--7--7--5--7------|----------------|--7--7--5--7------|--3------5------|
------------------|----------------|------------------|----------------|
------------------|----------------|------------------|----------------|


                                                                    
------------------|----------------|---------------|---------------|
------------------|----------------|---------------|---------------|
------------------|--5-------------|---------------|---------------|
--7--7--5--7------|---------7------|---------------|--5------------|
------------------|----------------|--5------------|---------------|
------------------|----------------|---------------|---------------|


                                                                        
------------------|----------------|------------------|----------------|
------------------|----------------|------------------|----------------|
------------------|--5------4------|------------------|----------------|
--7--7--5--7------|----------------|--7--7--5--7------|--3------5------|
------------------|----------------|------------------|----------------|
------------------|----------------|------------------|----------------|


                                                                     
------------------|----------------|---------------|----------------|
------------------|----------------|---------------|----------------|
------------------|--5-------------|---------------|----------------|
--7--7--5--7------|---------7------|--5------------|----------------|
------------------|----------------|---------------|--5------3------|
------------------|----------------|---------------|----------------|


                                                                       
---------------|-----------------|---------------|--------------------|
---------------|-----------------|---------------|--------------------|
---------------|-----------------|---------------|--------------------|
---------------|-----------------|---------------|--------------------|
--0------------|--------3--5--2--|--0------------|--3--5--2--3--5--2--|
---------------|-----------------|---------------|--------------------|


                             
------------------|--------||
------------------|--------||
------------------|--------||
--7--7--5--7------|--------||
------------------|--------||
------------------|--------||
Comments