Hammerfall - The Way Of The Warrior Rhythm Chords & Tabs

 

The Way Of The Warrior Rhythm Chords & Tabs

Hammerfall Chords & Tabs

Version: 1 Type: Tab 0 ratings
1 star 2 stars 3 stars 4 stars 5 stars
comments

The Way Of The Warrior Rhythm Tab

                              The Way of the Warrior                                 


                                         Oscar Dronjak, Joacim Cans, Jesper Strömblad
rhythm guitar
Tabbed by Martin Kahnberg (aka Owain ap Nghân)
kahnberg@freemail.hammerfall.net / owain@home.se
http://www.geocities.com/kahnberg / http://www.geocities.com/owainse

    intro / riff 1                                                                  
D#||---------------|--------------|--------------|--------------|---------------|
A#||---------------|--------------|--------------|--------------|---------------|
F#||---------------|--------------|--------------|--------------|---------------|
C#||--2------------|--------------|--------------|--------------|--7------------|
G#||--2------------|--------------|--------------|--------------|--7------------|
D#||--0------------|--------------|--------------|--------------|--5------------|


                                                                               
--------------|--------------|-----------------|---------------|--------------|
--------------|--------------|-----------------|---------------|--------------|
--------------|--------------|-----------------|---------------|--------------|
--------------|--------------|-----------------|--2------------|--------------|
--------------|--------------|--------3--5--2--|--2------------|--------------|
--------------|--------------|-----------------|--0------------|--------------|


                                                                                
--------------|--------------|---------------|-----------------|---------------|
--------------|--------------|---------------|-----------------|---------------|
--------------|--------------|---------------|-----------------|---------------|
--------------|--------------|--7------------|-----------------|--7------------|
--------------|--------------|--7------------|-----------5-----|--7------------|
--------------|--------------|--5------------|--------8-----7--|--5------------|


                                                                                    
--------------------|--------------------|--------------------|--------------------|
--------------------|--------------------|--------------------|--------------------|
--------------------|--------------------|--------------------|--------------------|
--------------------|--2--------2--------|--2-----------------|--2--------2--------|
-----5--------5-----|--2--------2--------|--2-----------------|--2--------2--------|
--8-----7--8-----7--|--0--0--0--0--0--0--|--0--0--0--3--5--2--|--0--0--0--0--0--0--|


                                                                                    
--------------------|--------------------|--------------------|--------------------|
--------------------|--------------------|--------------------|--------------------|
--------------------|--------------------|--------------------|--------------------|
--2-----------------|--7--------7--------|--7-----------------|--7--------7--------|
--2-----------------|--7--------7--------|--7-----------5-----|--7--------7--------|
--0--0--0--3--5--2--|--5--5--5--5--5--5--|--5--5--5--8-----7--|--5--5--5--5--5--5--|


                      verse 1                                         
--------------------||----------------|--------------|---------------|
--------------------||----------------|--------------|---------------|
--------------------||*--9------------|--------------|--5------------|
--------------------||*--9------------|--------------|--5------------|
-----5--------5-----||---7------------|--------------|--3------------|
--8-----7--8-----7--||----------------|--------------|---------------|


                3x bridge                                                          
----------------||---------------------|---------------------|---------------------|
----------------||---------------------|---------------------|---------------------|
--7------------*||---------------------|---------------------|---------------------|
--7------------*||---------------------|---------------------|---------------------|
--5-------------||-----------10-----9--|-----------10-----9--|-----------10-----9--|
----------------||--7--7--7--7---7--7--|--7--7--7--7---7--7--|--7--7--7--7---7--7--|


                                                                            
---------------|---------------|---------------------|---------------------|
---------------|---------------|---------------------|---------------------|
---------------|---------------|---------------------|---------------------|
--5------------|--2------------|---------------------|---------------------|
--5------------|--2------------|-----------10-----9--|-----------10-----9--|
--3------------|--0------------|--7--7--7--7---7--7--|--7--7--7--7---7--7--|


                                 chorus                                              
---------------|---------------|------------------|--------------|------------------|
---------------|---------------|------------------|--------------|------------------|
---------------|---------------|--9--9--7--9------|--------------|--9--9--7--9------|
--5------------|--7------------|--9--9--7--9------|--------------|--9--9--7--9------|
--5------------|--7------------|--7--7--5--7------|--------------|--7--7--5--7------|
--3------------|--5------------|------------------|--------------|------------------|


                                                                                   
----------------|------------------|--------------|---------------|---------------|
----------------|------------------|--------------|---------------|---------------|
--5------7------|--9--9--7--9------|--------------|---------------|--7------------|
--5------7------|--9--9--7--9------|--------------|--7------------|--7------------|
--3------5------|--7--7--5--7------|--------------|--7------------|--5------------|
----------------|------------------|--------------|--5------------|---------------|


                                                                      
------------------|--------------|------------------|----------------|
------------------|--------------|------------------|----------------|
--9--9--7--9------|--------------|--9--9--7--9------|--5------7------|
--9--9--7--9------|--------------|--9--9--7--9------|--5------7------|
--7--7--5--7------|--------------|--7--7--5--7------|--3------5------|
------------------|--------------|------------------|----------------|


                                                                   riff 1          
------------------|--------------|---------------|----------------|---------------|
------------------|--------------|---------------|----------------|---------------|
--9--9--7--9------|--------------|--7------------|----------------|---------------|
--9--9--7--9------|--------------|--7------------|--7------5------|--2------------|
--7--7--5--7------|--------------|--5------------|--7------5------|--2------------|
------------------|--------------|---------------|--5------3------|--0------------|


                                                                               
--------------|--------------|--------------|---------------|-----------------|
--------------|--------------|--------------|---------------|-----------------|
--------------|--------------|--------------|---------------|-----------------|
--------------|--------------|--------------|--7------------|-----------------|
--------------|--------------|--------------|--7------------|-----------5-----|
--------------|--------------|--------------|--5------------|--------8-----7--|


                                      verse 2                        
---------------|--------------------||----------------|--------------|
---------------|--------------------||----------------|--------------|
---------------|--------------------||*--9------------|--------------|
--7------------|--------------------||*--9------------|--------------|
--7------------|-----5--------5-----||---7------------|--------------|
--5------------|--8-----7--8-----7--||----------------|--------------|


                                3x bridge                                     
---------------|----------------||---------------------|---------------------|
---------------|----------------||---------------------|---------------------|
--5------------|--7------------*||---------------------|---------------------|
--5------------|--7------------*||---------------------|---------------------|
--3------------|--5-------------||-----------10-----9--|-----------10-----9--|
---------------|----------------||--7--7--7--7---7--7--|--7--7--7--7---7--7--|


                                                                            
---------------------|---------------|---------------|---------------------|
---------------------|---------------|---------------|---------------------|
---------------------|---------------|---------------|---------------------|
---------------------|--5------------|--2------------|---------------------|
-----------10-----9--|--5------------|--2------------|-----------10-----9--|
--7--7--7--7---7--7--|--3------------|--0------------|--7--7--7--7---7--7--|


                                                      chorus            
---------------------|---------------|---------------|------------------|
---------------------|---------------|---------------|------------------|
---------------------|---------------|---------------|--9--9--7--9------|
---------------------|--5------------|--7------------|--9--9--7--9------|
-----------10-----9--|--5------------|--7------------|--7--7--5--7------|
--7--7--7--7---7--7--|--3------------|--5------------|------------------|


                                                                                     
--------------|------------------|----------------|------------------|--------------|
--------------|------------------|----------------|------------------|--------------|
--------------|--9--9--7--9------|--5------7------|--9--9--7--9------|--------------|
--------------|--9--9--7--9------|--5------7------|--9--9--7--9------|--------------|
--------------|--7--7--5--7------|--3------5------|--7--7--5--7------|--------------|
--------------|------------------|----------------|------------------|--------------|


                                                                                     
---------------|---------------|------------------|--------------|------------------|
---------------|---------------|------------------|--------------|------------------|
---------------|--7------------|--9--9--7--9------|--------------|--9--9--7--9------|
--7------------|--7------------|--9--9--7--9------|--------------|--9--9--7--9------|
--7------------|--5------------|--7--7--5--7------|--------------|--7--7--5--7------|
--5------------|---------------|------------------|--------------|------------------|


                                                                                    
----------------|------------------|--------------|---------------|----------------|
----------------|------------------|--------------|---------------|----------------|
--5------7------|--9--9--7--9------|--------------|--7------------|----------------|
--5------7------|--9--9--7--9------|--------------|--7------------|--7------5------|
--3------5------|--7--7--5--7------|--------------|--5------------|--7------5------|
----------------|------------------|--------------|---------------|--5------3------|

[ Tab from: http://www.guitartabs.cc/tabs/h/hammerfall/the_way_of_the_warrior_rhythm_tab.html ]
                               solo                                    
---------------|--------------|--------------------|--------------------|
---------------|--------------|--------------------|--------------------|
---------------|--------------|--6--------6--------|--6-----------------|
--2------------|--------------|--6--------6--------|--6-----------------|
--2------------|--------------|--4--4--4--4--4--4--|--4--4--4--4--6--7--|
--0------------|--------------|--------------------|--------------------|


                                                                          
--------------------|---------------|---------------|--------------------|
--------------------|---------------|---------------|--------------------|
--6-----------------|---------------|---------------|--6--------6--------|
--6-----------------|--7------------|--4------------|--6--------6--------|
--4--4--4--4--6--7--|--7------------|--4------------|--4--4--4--4--4--4--|
--------------------|--5------------|--2------------|--------------------|


                                                                          
--------------------|---------------|---------------|--------------------|
--------------------|---------------|---------------|--------------------|
--6-----------------|---------------|--4------------|--6--------6--------|
--6-----------------|--7------------|--4------------|--6--------6--------|
--4--4--4--4--6--7--|--7------------|--2------------|--4--4--4--4--4--4--|
--------------------|--5------------|---------------|--------------------|


                                                                          
--------------------|--------------------|---------------|---------------|
--------------------|--------------------|---------------|---------------|
--6-----------------|--6-----------------|---------------|---------------|
--6-----------------|--6-----------------|--7------------|--4------------|
--4--4--4--4--6--7--|--4--4--4--4--6--7--|--7------------|--4------------|
--------------------|--------------------|--5------------|--2------------|


                                                                          
--------------------|--------------------|---------------|---------------|
--------------------|--------------------|---------------|---------------|
--6--------6--------|--6-----------------|---------------|--4------------|
--6--------6--------|--6-----------------|--7------------|--4------------|
--4--4--4--4--4--4--|--4--4--4--4--6--7--|--7------------|--2------------|
--------------------|--------------------|--5------------|---------------|


riff 2                                                                           
---------------|---------------|---------------|----------------|---------------|
---------------|---------------|---------------|----------------|---------------|
---------------|---------------|--7------------|--5-------------|---------------|
--7------------|--5------------|--7------------|--5------5------|--7------------|
--7------------|--5------------|--5------------|--3------5------|--7------------|
--5------------|--3------------|---------------|---------3------|--5------------|


                                                   stick              
---------------|----------------|---------------||-------------------|
---------------|----------------|---------------||-------------------|
---------------|--5-------------|---------------||*------------------|
--5------------|--5------3------|--7------------||*-----------7------|
--5------------|--3------3------|--7------------||---7--------7------|
--3------------|---------1------|--5------------||---5--5--5--5------|


                                                                          
------------------|------------------|----------------|------------------|
------------------|------------------|----------------|------------------|
------------------|--7--------7------|--5-------------|------------------|
-----------2------|--7--------7------|--5------5------|-----------7------|
--2--------2------|--5--5--5--5------|--3------5------|--7--------7------|
--0--0--0--0------|------------------|---------3------|--5--5--5--5------|


                                                         riff 2            
------------------|----------------|-------------------||----------------|
------------------|----------------|-------------------||----------------|
------------------|--5-------------|------------------*||*---------------|
-----------2------|--5------5------|-----------7------*||*--7------------|
--2--------2------|--3------5------|--7--------7-------||---7------------|
--0--0--0--0------|---------3------|--5--5--5--5-------||---5------------|


                                                                                 
---------------|---------------|----------------|---------------|---------------|
---------------|---------------|----------------|---------------|---------------|
---------------|--7------------|--5-------------|---------------|---------------|
--5------------|--7------------|--5------5------|--7------------|--5------------|
--5------------|--5------------|--3------5------|--7------------|--5------------|
--3------------|---------------|---------3------|--5------------|--3------------|


                                                                    
----------------|----------------||----------------|---------------|
----------------|----------------||----------------|---------------|
--5-------------|---------------*||--5-------------|---------------|
--5------3------|--7------------*||--5------3------|--7------------|
--3------3------|--7-------------||--3------3------|--7------------|
---------1------|--5-------------||---------1------|--5------------|


 verse 3                                                         3x
|----------------|--------------|---------------|----------------||
|----------------|--------------|---------------|----------------||
|*--9------------|--------------|--5------------|--7------------*||
|*--9------------|--------------|--5------------|--7------------*||
|---7------------|--------------|--3------------|--5-------------||
|----------------|--------------|---------------|----------------||


bridge                                                                            
----------------------|---------------------|---------------------|---------------|
----------------------|---------------------|---------------------|---------------|
*---------------------|---------------------|---------------------|---------------|
*---------------------|---------------------|---------------------|--5------------|
------------10-----9--|-----------10-----9--|-----------10-----9--|--5------------|
---7--7--7--7---7--7--|--7--7--7--7---7--7--|--7--7--7--7---7--7--|--3------------|


                                                                            
---------------|---------------------|---------------------|---------------|
---------------|---------------------|---------------------|---------------|
---------------|---------------------|---------------------|---------------|
--2------------|---------------------|---------------------|--5------------|
--2------------|-----------10-----9--|-----------10-----9--|--5------------|
--0------------|--7--7--7--7---7--7--|--7--7--7--7---7--7--|--3------------|


                  chorus x2                                             
----------------||------------------|--------------|------------------|
----------------||------------------|--------------|------------------|
---------------*||--9--9--7--9------|--------------|--9--9--7--9------|
--7------------*||--9--9--7--9------|--------------|--9--9--7--9------|
--7-------------||--7--7--5--7------|--------------|--7--7--5--7------|
--5-------------||------------------|--------------|------------------|


                                                                                   
----------------|------------------|--------------|---------------|---------------|
----------------|------------------|--------------|---------------|---------------|
--5------7------|--9--9--7--9------|--------------|---------------|--7------------|
--5------7------|--9--9--7--9------|--------------|--7------------|--7------------|
--3------5------|--7--7--5--7------|--------------|--7------------|--5------------|
----------------|------------------|--------------|--5------------|---------------|


                                                                      
------------------|--------------|------------------|----------------|
------------------|--------------|------------------|----------------|
--9--9--7--9------|--------------|--9--9--7--9------|--5------7------|
--9--9--7--9------|--------------|--9--9--7--9------|--5------7------|
--7--7--5--7------|--------------|--7--7--5--7------|--3------5------|
------------------|--------------|------------------|----------------|


                                                                   
------------------|--------------|---------------|----------------|
------------------|--------------|---------------|----------------|
--9--9--7--9------|--------------|--7------------|----------------|
--9--9--7--9------|--------------|--7------------|--7------5------|
--7--7--5--7------|--------------|--5------------|--7------5------|
------------------|--------------|---------------|--5------3------|


                                                                          
------------------|------------------|------------------|----------------|
------------------|------------------|------------------|----------------|
--9--9--7--9------|--12------11------|--9--9--7--9------|--5------7------|
--9--9--7--9------|--12------11------|--9--9--7--9------|--5------7------|
--7--7--5--7------|--10------9-------|--7--7--5--7------|--3------5------|
------------------|------------------|------------------|----------------|


                                                                     
------------------|-----------------|---------------|---------------|
------------------|-----------------|---------------|---------------|
--9--9--7--9------|--12------9------|---------------|--7------------|
--9--9--7--9------|--12------9------|--7------------|--7------------|
--7--7--5--7------|--10------7------|--7------------|--5------------|
------------------|-----------------|--5------------|---------------|


                                                                          
------------------|------------------|------------------|----------------|
------------------|------------------|------------------|----------------|
--9--9--7--9------|--12------11------|--9--9--7--9------|--5------7------|
--9--9--7--9------|--12------11------|--9--9--7--9------|--5------7------|
--7--7--5--7------|--10------9-------|--7--7--5--7------|--3------5------|
------------------|------------------|------------------|----------------|


                                                                      
------------------|-----------------|---------------|----------------|
------------------|-----------------|---------------|----------------|
--9--9--7--9------|--12------9------|--7------------|----------------|
--9--9--7--9------|--12------9------|--7------------|--7------5------|
--7--7--5--7------|--10------7------|--5------------|--7------5------|
------------------|-----------------|---------------|--5------3------|


outro / riff 1                                                     
---------------|-----------------|---------------|--------------------|
---------------|-----------------|---------------|--------------------|
---------------|-----------------|---------------|--------------------|
--2------------|-----------------|--2------------|--------------------|
--2------------|-----------------|--2------------|--------------------|
--0------------|--------3--5--2--|--0------------|--3--5--2--3--5--2--|


                    
------------------||
------------------||
--9--9--7--9------||
--9--9--7--9------||
--7--7--5--7------||
--0--0--0--0------||


Comments