Hammerfall - The Way Of The Warrior Chords & Tabs

 

The Way Of The Warrior Chords & Tabs

Hammerfall Chords & Tabs

Version: 1 Type: Bass Tab 0 ratings
1 star 2 stars 3 stars 4 stars 5 stars
comments

The Way Of The Warrior Bass Tab

                              The Way of the Warrior                                 


                                         Oscar Dronjak, Joacim Cans, Jesper Strömblad
bass
Tabbed by Martin Kahnberg (aka Owain ap Nghân)
kahnberg@freemail.hammerfall.net / owain@home.se
http://www.geocities.com/kahnberg / http://www.geocities.com/owainse

    intro / riff 1                                                                   
F#||---------------|--|--|--|---------------|--|--|-----------------|---------------|
C#||---------------|--|--|--|---------------|--|--|-----------------|---------------|
G#||---------------|--|--|--|--0------------|--|--|--------3--5--2--|---------------|
D#||--0------------|--|--|--|---------------|--|--|-----------------|--0------------|


                                                                                
--|--|--|---------------|-----------------|---------------|--------------------|
--|--|--|---------------|-----------------|---------------|--------------------|
--|--|--|--0------------|--------3--5--2--|--0------------|--3--5--2--3--5--2--|
--|--|--|---------------|-----------------|---------------|--------------------|


                                                                                    
--------------------|--------------------|--------------------|--------------------|
--------------------|--------------------|--------------------|--------------------|
--------------------|--------------------|--------------------|--------------------|
--0--0--0--0--0--0--|--0--0--0--3--5--2--|--0--0--0--0--0--0--|--0--0--0--3--5--2--|


                                                                                    
--------------------|--------------------|--------------------|--------------------|
--------------------|--------------------|--------------------|--------------------|
--0--0--0--0--0--0--|--0--0--0--3--5--2--|--0--0--0--0--0--0--|--3--5--2--3--5--2--|
--------------------|--------------------|--------------------|--------------------|


 verse 1                                                              3x
|-----------------|----------------|----------------|-----------------||
|*----------------|----------------|----------------|----------------*||
|*--7------7------|--7------7------|----------------|--5------5------*||
|-----------------|----------------|--8------8------|-----------------||


bridge                                                                         
--------------------|--------------------|--------------------|---------------|
--------------------|--------------------|--------------------|---------------|
--------------------|--------------------|--------------------|---------------|
--7--7--7--7--7--7--|--7--7--7--7--7--7--|--7--7--7--7--7--7--|--3------------|


                                                                          
---------------|--------------------|--------------------|---------------|
---------------|--------------------|--------------------|---------------|
---------------|--------------------|--------------------|---------------|
--0------------|--7--7--7--7--7--7--|--7--7--7--7--7--7--|--3------------|


                 chorus                                                   
---------------|------------------|--|------------------|----------------|
---------------|------------------|--|------------------|----------------|
---------------|--7--7--5--7------|--|--7--7--5--7------|---------5------|
--5------------|------------------|--|------------------|--8-------------|


                                                                            
------------------|--|---------------|---------------|------------------|--|
------------------|--|---------------|---------------|------------------|--|
--7--7--5--7------|--|---------------|--5------------|--7--7--5--7------|--|
------------------|--|--5------------|---------------|------------------|--|


                                                                          
------------------|----------------|------------------|--|---------------|
------------------|----------------|------------------|--|---------------|
--7--7--5--7------|---------5------|--7--7--5--7------|--|--5------------|
------------------|--8-------------|------------------|--|---------------|


                 riff 1                                                     
----------------|---------------|--|--|--|---------------|-----------------|
----------------|---------------|--|--|--|---------------|-----------------|
----------------|---------------|--|--|--|--0------------|--------3--5--2--|
--5------3------|--0------------|--|--|--|---------------|-----------------|


                                      verse 2                            
---------------|--------------------||-----------------|----------------|
---------------|--------------------||*----------------|----------------|
--0------------|--3--5--2--3--5--2--||*--7------7------|--7------7------|
---------------|--------------------||-----------------|----------------|


                                  3x bridge                                  
----------------|-----------------||--------------------|--------------------|
----------------|----------------*||--------------------|--------------------|
----------------|--5------5------*||--------------------|--------------------|
--8------8------|-----------------||--7--7--7--7--7--7--|--7--7--7--7--7--7--|


                                                                          
--------------------|---------------|---------------|--------------------|
--------------------|---------------|---------------|--------------------|
--------------------|---------------|---------------|--------------------|
--7--7--7--7--7--7--|--3------------|--0------------|--7--7--7--7--7--7--|


                                                                           
--------------------|---------------|---------------|------------------|--|
--------------------|---------------|---------------|------------------|--|
--------------------|---------------|---------------|--7--7--5--7------|--|
--7--7--7--7--7--7--|--3------------|--5------------|------------------|--|


                                    chorus                                
------------------|----------------|------------------|--|---------------|
------------------|----------------|------------------|--|---------------|
--7--7--5--7------|---------5------|--7--7--5--7------|--|---------------|
------------------|--8-------------|------------------|--|--5------------|


                                                                          
---------------|------------------|--|------------------|----------------|
---------------|------------------|--|------------------|----------------|
--5------------|--7--7--5--7------|--|--7--7--5--7------|---------5------|
---------------|------------------|--|------------------|--8-------------|


                                                                          
------------------|--|---------------|----------------|---------------|--|
------------------|--|---------------|----------------|---------------|--|
--7--7--5--7------|--|--5------------|----------------|---------------|--|
------------------|--|---------------|--5------3------|--0------------|--|


solo                                                                         
--------------------|--------------------|--------------------|---------------|
--------------------|--------------------|--------------------|---------------|
--4--4--4--4--4--4--|--4--4--4--4--6--7--|--4--4--4--4--6--7--|--0------------|
--------------------|--------------------|--------------------|---------------|

[ Tab from: http://www.guitartabs.cc/tabs/h/hammerfall/the_way_of_the_warrior_btab.html ]
                                                                          
---------------|--------------------|--------------------|---------------|
---------------|--------------------|--------------------|---------------|
---------------|--4--4--4--4--4--4--|--4--4--4--4--6--7--|--0------------|
--2------------|--------------------|--------------------|---------------|


                                                                               
---------------|--------------------|--------------------|--------------------|
---------------|--------------------|--------------------|--------------------|
---------------|--4--4--4--4--4--4--|--4--4--4--4--6--7--|--4--4--4--4--6--7--|
--7------------|--------------------|--------------------|--------------------|


                                                                          
---------------|---------------|--------------------|--------------------|
---------------|---------------|--------------------|--------------------|
--0------------|---------------|--4--4--4--4--4--4--|--4--4--4--4--6--7--|
---------------|--2------------|--------------------|--------------------|


                                riff 2                                         
---------------|---------------|---------------|---------------|---------------|
---------------|---------------|---------------|---------------|---------------|
--0------------|---------------|---------------|---------------|--5------------|
---------------|--7------------|--5------------|--3------------|---------------|


                                                                                  
----------------|---------------|---------------|----------------|---------------|
----------------|---------------|---------------|----------------|---------------|
--3-------------|---------------|---------------|--3-------------|---------------|
---------3------|--5------------|--3------------|---------1------|--5------------|


  stick                                                                     
|-------------------|------------------|------------------|----------------|
|*------------------|------------------|------------------|----------------|
|*------------------|------------------|--5--5--5--5------|--3-------------|
|---5--5--5--5------|--0--0--0--0------|------------------|---------3------|


                                                                            
------------------|------------------|----------------|-------------------||
------------------|------------------|----------------|------------------*||
------------------|------------------|--3-------------|------------------*||
--5--5--5--5------|--0--0--0--0------|---------3------|--5--5--5--5-------||


 riff 2                                                                          
----------------|---------------|---------------|----------------|---------------|
*---------------|---------------|---------------|----------------|---------------|
*---------------|---------------|--5------------|--3-------------|---------------|
---5------------|--3------------|---------------|---------3------|--5------------|


                                                                                    
---------------|----------------|----------------||----------------|---------------|
---------------|----------------|---------------*||----------------|---------------|
---------------|--3-------------|---------------*||--3------3------|---------------|
--3------------|---------1------|--5-------------||----------------|--5------------|


  verse 3                                                             3x
|-----------------|----------------|----------------|-----------------||
|*----------------|----------------|----------------|----------------*||
|*--7------7------|--7------7------|----------------|--5------5------*||
|-----------------|----------------|--8------8------|-----------------||


 bridge                                                                         
---------------------|--------------------|--------------------|---------------|
*--------------------|--------------------|--------------------|---------------|
*--------------------|--------------------|--------------------|---------------|
---7--7--7--7--7--7--|--7--7--7--7--7--7--|--7--7--7--7--7--7--|--3------------|


                                                                          
---------------|--------------------|--------------------|---------------|
---------------|--------------------|--------------------|---------------|
---------------|--------------------|--------------------|---------------|
--0------------|--7--7--7--7--7--7--|--7--7--7--7--7--7--|--3------------|


                  chorus x2                                                   
----------------||------------------|--|------------------|----------------|
---------------*||------------------|--|------------------|----------------|
---------------*||--7--7--5--7------|--|--7--7--5--7------|---------5------|
--5-------------||------------------|--|------------------|--8-------------|


                                                                            
------------------|--|---------------|---------------|------------------|--|
------------------|--|---------------|---------------|------------------|--|
--7--7--5--7------|--|---------------|--5------------|--7--7--5--7------|--|
------------------|--|--5------------|---------------|------------------|--|


                                                                          
------------------|----------------|------------------|--|---------------|
------------------|----------------|------------------|--|---------------|
--7--7--5--7------|---------5------|--7--7--5--7------|--|--5------------|
------------------|--8-------------|------------------|--|---------------|


                                                                        
----------------|------------------|----------------|------------------|
----------------|------------------|--5------4------|------------------|
----------------|--7--7--5--7------|----------------|--7--7--5--7------|
--5------3------|------------------|----------------|------------------|


                                                                                     
----------------|------------------|----------------|---------------|---------------|
----------------|------------------|--5-------------|---------------|---------------|
---------5------|--7--7--5--7------|---------7------|---------------|--5------------|
--8-------------|------------------|----------------|--5------------|---------------|


                                                                        
------------------|----------------|------------------|----------------|
------------------|--5------4------|------------------|----------------|
--7--7--5--7------|----------------|--7--7--5--7------|---------5------|
------------------|----------------|------------------|--8-------------|


                                                                     outro / riff 1
------------------|----------------|---------------|----------------|---------------|
------------------|--5-------------|---------------|----------------|---------------|
--7--7--5--7------|---------7------|--5------------|----------------|---------------|
------------------|----------------|---------------|--5------3------|--0------------|


                                                                           
-----------------|---------------|--------------------|-----------9------||
-----------------|---------------|--------------------|-----------9------||
-----------------|---------------|--------------------|--7--7--5--7------||
--------3--5--2--|--0------------|--3--5--2--3--5--2--|--0--0--0--0------||


Comments