Hammerfall - The Dragon Lies Bleeding Chords & Tabs

 

The Dragon Lies Bleeding Chords & Tabs

Hammerfall Chords & Tabs

Version: 2 Type: Bass Tab 0 ratings
1 star 2 stars 3 stars 4 stars 5 stars
comments

The Dragon Lies Bleeding Bass Tab

G||-------------------|------------------------|-------------------|
D||-------------------|------------------------|-------------------|
A||-------------------|--3--3--3----5--5--5----|-------------------|
E||--0----------------|------------------------|--0----------------|


                                                                      
------------------------|-------------------|------------------------|
------------------------|-------------------|------------------------|
--3--3--3----5--5--5----|-------------------|--3--3--3----5--5--5----|
------------------------|--0----------------|------------------------|


                                                      
--------------------------|--------------------------|
--------------------------|--------------------------|
--------------------------|--3--3--3--3--0--0--5--5--|
--0--0--0--0--0--0--0--0--|--------------------------|


                                                      
--------------------------|--------------------------|
--------------------------|--------------------------|
--------------------------|--3--3--3--3--5--5--5--5--|
--0--0--0--0--0--0--0--0--|--------------------------|


                                                      
--------------------------|--------------------------|
--------------------------|--------------------------|
--------------------------|--3--3--3--3--0--0--5--5--|
--0--0--0--0--0--0--0--0--|--------------------------|


                                                      
--------------------------|--------------------------|
--------------------------|--------------------------|
--------------------------|--3--3--3--3--5--5--5--5--|
--0--0--0--0--0--0--0--0--|--------------------------|


                                                                                
--------------------------|--------------------------|-------------------------|
--------------------------|--------------------------|-------------------------|
--------------------------|--3--3--3--3--5--5--3--3--|-------------3------3----|
--0--0--0--0--0--0--0--0--|--------------------------|--0--0-0-0-0-------------|


                                                                              
-------------------------|-------------------------|-------------------------|
-------------------------|-------------------------|-------------------------|
-------------2------2----|--3--3-3-3-3-------------|--5--5-5-5-5-------------|
--0--0-0-0-0-------------|-------------0------0----|-------------0------0----|


                                                                              
-------------------------|-------------------------|-------------------------|
-------------------------|-------------------------|-------------------------|
-------------3------3----|-------------2------2----|--3--3-3-3-3-------------|
--0--0-0-0-0-------------|--0--0-0-0-0-------------|-------------0------0----|


                                                      
--------------------------|--------------------------|
--------------------------|--------------------------|
--5--5-5-5-5--------------|--------------------------|
-------------0------0--2--|--3--3--3--3--3--3--3--3--|


                                                      
--------------------------|--------------------------|
--------------------------|--------------------------|
--7--7--7--7--5--5--5--5--|--3--3--3--3--3--3--3--3--|
--------------------------|--------------------------|


                                                      
--------------------------|--------------------------|
--------------------------|--------------------------|
--------------5--7--9--5--|--------------------------|
--3--3--3--3--------------|--3--3--3--3--3--3--3--3--|


                                                      
--------------------------|--------------------------|
--------------------------|--------------------------|
--7--7--7--7--5--5--5--5--|--3--3--3--3--3--3--3--3--|
--------------------------|--------------------------|


                                                      
--------------------------|--------------------------|
--------------------------|--------------------------|
--0--0--0--0--2--2--2--2--|--3--3--3--3--5--5--5--5--|
--------------------------|--------------------------|


                                                      
--------------------------|--------------------------|
--------------------------|--------------------------|
--------------------------|--3--3--3--3--5--5--5--5--|
--0--0--0--0--0--0--0--0--|--------------------------|


                                                      
--------------------------|--------------------------|
--------------------------|--------------------------|
--------------------------|--3--3--3--3--0--0--5--5--|
--0--0--0--0--0--0--0--0--|--------------------------|


                                                      
--------------------------|--------------------------|
--------------------------|--------------------------|
--------------------------|--3--3--3--3--5--5--5--5--|
--0--0--0--0--0--0--0--0--|--------------------------|


                                                                                
--------------------------|--------------------------|-------------------------|
--------------------------|--------------------------|-------------------------|
--------------------------|--3--3--3--3--5--5--3--3--|-------------3------3----|
--0--0--0--0--0--0--0--0--|--------------------------|--0--0-0-0-0-------------|


                                                                              
-------------------------|-------------------------|-------------------------|
-------------------------|-------------------------|-------------------------|
-------------2------2----|--3--3-3-3-3-------------|--5--5-5-5-5-------------|
--0--0-0-0-0-------------|-------------0------0----|-------------0------0----|


                                                                              
-------------------------|-------------------------|-------------------------|
-------------------------|-------------------------|-------------------------|
-------------3------3----|-------------2------2----|--3--3-3-3-3-------------|
--0--0-0-0-0-------------|--0--0-0-0-0-------------|-------------0------0----|


                                                      
--------------------------|--------------------------|
--------------------------|--------------------------|
--5--5-5-5-5--------------|--------------------------|
-------------0------0--2--|--3--3--3--3--3--3--3--3--|


                                                      
--------------------------|--------------------------|
--------------------------|--------------------------|
--7--7--7--7--5--5--5--5--|--3--3--3--3--3--3--3--3--|
--------------------------|--------------------------|


                                                      
--------------------------|--------------------------|
--------------------------|--------------------------|
--------------5--7--9--5--|--------------------------|
--3--3--3--3--------------|--3--3--3--3--3--3--3--3--|


                                                      
--------------------------|--------------------------|
--------------------------|--------------------------|
--7--7--7--7--5--5--5--5--|--3--3--3--3--3--3--3--3--|
--------------------------|--------------------------|


                                                                              
--------------------------|-----------------------|--------------------------|
--------------------------|-----------------------|--------------------------|
--0--0--0--0--2--2--2--2--|--3--3--3--3--5--------|--------------3--3--3--3--|
--------------------------|-----------------------|--0--0--0--0--------------|


                                                      
--------------------------|--------------------------|
--------------------------|--------------------------|
--5--5--5--5--2--2--2--2--|--------------3--3--3--3--|
--------------------------|--0--0--0--0--------------|


                                                      
--------------------------|--------------------------|
--------------------------|--------------------------|
--------------5--5--5--5--|--------------3--3--3--3--|
--3--3--3--3--------------|--0--0--0--0--------------|


                                                      
--------------------------|--------------------------|
--------------------------|--------------------------|
--5--5--5--5--2--2--2--2--|--0--0--0--0--0--0--0--0--|
--------------------------|--------------------------|


                                                      
--------------------------|--------------------------|
--------------------------|--------------------------|
--3--3--3--3--5--5--5--5--|--------------3--3--3--3--|
--------------------------|--0--0--0--0--------------|


                                                      
--------------------------|--------------------------|
--------------------------|--------------------------|
--5--5--5--5--2--2--2--2--|--------------3--3--3--3--|
--------------------------|--0--0--0--0--------------|


                                                      
--------------------------|--------------------------|
--------------------------|--------------------------|
--------------5--5--5--5--|--------------3--3--3--3--|
--3--3--3--3--------------|--0--0--0--0--------------|


                                                      
--------------------------|--------------------------|
--------------------------|--------------------------|
--5--5--5--5--2--2--2--2--|--0--0--0--0--0--0--0--0--|
--------------------------|--------------------------|


                                                                  
--------------------------|-------------------|------------------|
--------------------------|-------------------|------------------|
--3--3--3--3--5--5--5--5--|-------------------|------------------|
--------------------------|--0----------------|------------------|


                                                                       
-------------------|-------------------|------------------------------|
-------------------|-------------------|------------------------------|
-------------------|-------------------|------------------------------|
--0----------------|----------------5--|--7--0-0-0--0-0-0--0-0-0--0-0-|


                                                             
-----------------------------|------------------------------|
-----------------------------|------------------------------|
-----------------------------|------------------------------|
--0--0-0-0--0-0-0--0-0-0--5--|--7--0-0-0--0-0-0--0-0-0--0-0-|


                                                             
-----------------------------|------------------------------|
-----------------------------|------------------------------|
-----------------------------|------------------------------|
--0--0-0-0--0-0-0--0-0-0--5--|--0--0-0-0--0-0-3--3-3-3--3-3-|

[ Tab from: http://www.guitartabs.cc/tabs/h/hammerfall/the_dragon_lies_bleeding_btab_ver_2.html ]
                                                             
-----------------------------|------------------------------|
-----------------------------|------------------------------|
--2--2-2-2--2-2--------------|----------------3--3-3-3--3-3-|
----------------0--0-0-0--2--|--3--3-3-3--3-3---------------|


                                                              
------------------------------|------------------------------|
------------------------------|------------------------------|
--0--0-0-0--0-0-5--5-5-5--5-5-|------------------------------|
------------------------------|--0--0-0-0--0-0-3--3-3-3--3-3-|


                                                             
-----------------------------|------------------------------|
-----------------------------|------------------------------|
--2--2-2-2--2-2--------------|----------------3--3-3-3--3-3-|
----------------0--0-0-0--2--|--3--3-3-3--3-3---------------|


                                                          
------------------------------|--------------------------|
------------------------------|--------------------------|
--5--5-5-5--5-5-7--7-7-7--7-7-|--3--3--3--3--3--3--3--3--|
------------------------------|--------------------------|


                                                      
--------------------------|--------------------------|
--------------------------|--------------------------|
--2--2--2--2--2--2--2--2--|--------------5--5--5--5--|
--------------------------|--0--0--0--0--------------|


                                                      
--------------------------|--------------------------|
--------------------------|--------------------------|
--3--3--3--3--3--3--3--3--|--3--3--3--3--3--3--3--3--|
--------------------------|--------------------------|


                                                      
--------------------------|--------------------------|
--------------------------|--------------------------|
--2--2--2--2--2--2--2--2--|--------------5--5--5--5--|
--------------------------|--0--0--0--0--------------|


                                                          
--------------------------|------------------------------|
--------------------------|------------------------------|
--0--0--0--0--2--2--2--2--|--3--3-3-3--3-3-3--3-3-3--3-3-|
--------------------------|------------------------------|


                                                              
------------------------------|------------------------------|
------------------------------|------------------------------|
--2--2-2-2--2-2-2--2-2-2--2-2-|----------------5--5-5-5--5-5-|
------------------------------|--0--0-0-0--0-0---------------|


                                                              
------------------------------|------------------------------|
------------------------------|------------------------------|
--3--3-3-3--3-3-3--3-3-3--3-3-|--3--3-3-3--3-3-3--3-3-3--3-3-|
------------------------------|------------------------------|


                                                              
------------------------------|------------------------------|
------------------------------|------------------------------|
--2--2-2-2--2-2-2--2-2-2--2-2-|----------------5--5-5-5--5-5-|
------------------------------|--0--0-0-0--0-0---------------|


                                                          
------------------------------|--------------------------|
------------------------------|--------------------------|
--0--0-0-0--0-0-2--2-2-2--2-2-|--------------------------|
------------------------------|--3--3--3--3--3--3--3--3--|


                                                      
--------------------------|--------------------------|
--------------------------|--------------------------|
--7--7--7--7--5--5--5--5--|--3--3--3--3--3--3--3--3--|
--------------------------|--------------------------|


                                                      
--------------------------|--------------------------|
--------------------------|--------------------------|
--------------5--7--9--5--|--------------------------|
--3--3--3--3--------------|--3--3--3--3--3--3--3--3--|


                                                      
--------------------------|--------------------------|
--------------------------|--------------------------|
--7--7--7--7--5--5--5--5--|--3--3--3--3--3--3--3--3--|
--------------------------|--------------------------|


                                                                                
--------------------------|--------------------------|-------------------------|
--------------------------|--------------------------|-------------------------|
--0--0--0--0--2--2--2--2--|--3--3--3--3--5--5--5--5--|-------------3------3----|
--------------------------|--------------------------|--0--0-0-0-0-------------|


                                                                              
-------------------------|-------------------------|-------------------------|
-------------------------|-------------------------|-------------------------|
-------------2------2----|--3--3-3-3-3-------------|--5--5-5-5-5-------------|
--0--0-0-0-0-------------|-------------0------0----|-------------0------0----|


                                                                              
-------------------------|-------------------------|-------------------------|
-------------------------|-------------------------|-------------------------|
-------------3------3----|-------------2------2----|--3--3-3-3-3-------------|
--0--0-0-0-0-------------|--0--0-0-0-0-------------|-------------0------0----|


                                                      
--------------------------|--------------------------|
--------------------------|--------------------------|
--5--5-5-5-5--------------|--------------------------|
-------------0------0--2--|--3--3--3--3--3--3--3--3--|


                                                      
--------------------------|--------------------------|
--------------------------|--------------------------|
--7--7--7--7--5--5--5--5--|--3--3--3--3--3--3--3--3--|
--------------------------|--------------------------|


                                                      
--------------------------|--------------------------|
--------------------------|--------------------------|
--------------5--7--9--5--|--------------------------|
--3--3--3--3--------------|--3--3--3--3--3--3--3--3--|


                                                      
--------------------------|--------------------------|
--------------------------|--------------------------|
--7--7--7--7--5--5--5--5--|--3--3--3--3--3--3--3--3--|
--------------------------|--------------------------|


                                                                              
--------------------------|-----------------------|--------------------------|
--------------------------|-----------------------|--------------------------|
--0--0--0--0--2--2--2--2--|--3--3--3--3--5--------|--------------3--3--3--3--|
--------------------------|-----------------------|--0--0--0--0--------------|


                                                      
--------------------------|--------------------------|
--------------------------|--------------------------|
--5--5--5--5--2--2--2--2--|--------------3--3--3--3--|
--------------------------|--0--0--0--0--------------|


                                                      
--------------------------|--------------------------|
--------------------------|--------------------------|
--------------5--5--5--5--|--------------3--3--3--3--|
--3--3--3--3--------------|--0--0--0--0--------------|


                                                      
--------------------------|--------------------------|
--------------------------|--------------------------|
--5--5--5--5--2--2--2--2--|--0--0--0--0--0--0--0--0--|
--------------------------|--------------------------|


                                                      
--------------------------|--------------------------|
--------------------------|--------------------------|
--3--3--3--3--5--5--5--5--|--------------3--3--3--3--|
--------------------------|--0--0--0--0--------------|


                                                      
--------------------------|--------------------------|
--------------------------|--------------------------|
--5--5--5--5--2--2--2--2--|--------------3--3--3--3--|
--------------------------|--0--0--0--0--------------|


                                                      
--------------------------|--------------------------|
--------------------------|--------------------------|
--------------5--5--5--5--|--------------3--3--3--3--|
--3--3--3--3--------------|--0--0--0--0--------------|


                                                                              
--------------------------|--------------------------|-----------------------|
--------------------------|--------------------------|-----------------------|
--5--5--5--5--2--2--2--2--|--0--0--0--0--0--0--0--0--|--3--3--3--3--5--------|
--------------------------|--------------------------|-----------------------|


                                                      
--------------------------|--------------------------|
--------------------------|--------------------------|
--------------4--4--4--4--|--6--6--6--6--3--3--3--3--|
--1--1--1--1--------------|--------------------------|


                                                      
--------------------------|--------------------------|
--------------------------|--------------------------|
--------------4--4--4--4--|--------------6--6--6--6--|
--1--1--1--1--------------|--4--4--4--4--------------|


                                                      
--------------------------|--------------------------|
--------------------------|--------------------------|
--------------4--4--4--4--|--6--6--6--6--3--3--3--3--|
--1--1--1--1--------------|--------------------------|


                                                      
--------------------------|--------------------------|
--------------------------|--------------------------|
--1--1--1--1--1--1--1--1--|--4--4--4--4--6--6--6--6--|
--------------------------|--------------------------|


                                                      
--------------------------|--------------------------|
--------------------------|--------------------------|
--------------4--4--4--4--|--6--6--6--6--3--3--3--3--|
--1--1--1--1--------------|--------------------------|


                                                      
--------------------------|--------------------------|
--------------------------|--------------------------|
--------------4--4--4--4--|--------------6--6--6--6--|
--1--1--1--1--------------|--4--4--4--4--------------|


                                                      
--------------------------|--------------------------|
--------------------------|--------------------------|
--------------4--4--4--4--|--6--6--6--6--3--3--3--3--|
--1--1--1--1--------------|--------------------------|


                                                                   
--------------------------|------------------------|-------------||
--------------------------|------------------------|-------------||
--1--1--1--1--1--1--1--1--|--4--4--4----6--6--6----|-------------||
--------------------------|------------------------|--1--1--1----||
Comments