Hammerfall - The Dragon Lies Bleeding Chords & Tabs

 

The Dragon Lies Bleeding Chords & Tabs

Hammerfall Chords & Tabs

Version: 1 Type: Bass Tab 0 ratings
1 star 2 stars 3 stars 4 stars 5 stars
comments

The Dragon Lies Bleeding Bass Tab

The Dragon Lies Bleeding

by HammerFall


www.metalforever.cjb.net
E-MAIL: metalforever2000@yahoo.com
Thanks for visiting us!



Intro I
G-----------------|-----------------|-----------------|-----------------|
D-----------------|-----------------|-----------------|-----------------|
A-6---------------|-2-2-2-2-2-------|-4-4-4-4-4-------|-6---------------|
E-----------------|-----------------|-----------------|-----------------|                                                                             


|-----------------|-----------------|-----------------|-----------------|
|-----------------|-----------------|-----------------|-----------------|
|-2-------------4-|-6---------------|-2-2-2-2-2-------|-4-4-4-4-4-------|
|-------------4---|-----------------|-----------------|-----------------|



|-----------------|-----------------|-----------------|
|-----------------|-----------------|-----------------|
|-2-2-2-2-2-2-2-2-|-4-4-4-4-4-4-4-4-|-2-------4-------|
|-----------------|-----------------|-----------------|

Intro II
|-----------------|-----------------|-----------------|-----------------|
|-----------------|-----------------|-----------------|-----------------|
|-6-6-6-6-6-6-6-6-|-2-2-2-2-4-4-4-4-|-6-6-6-6-6-6-6-6-|-2-2-2-2-----4-6-|
|-----------------|-----------------|-----------------|----------4------|
                                                                         


|-----------------|-----------------|-----------------|-----------------|
|-----------------|-----------------|-----------------|-----------------|
|-6-6-6-6-6-6-6-6-|-2-2-2-2-4-4-4-4-|-2-2-2-2-2-2-2-2-|-4-4-4-4-4-4-4-4-|
|-----------------|-----------------|-----------------|-----------------|

                   Vocals 
|-----------------|-----------------|-----------------|-----------------|
|-----------------|-----------------|-----------------|-----------------|
|-2-------4-------|46666666466666666|46666666466666666|-2-2-2-2-6-6-6-6-|
|-----------------|-----------------|-----------------|-----------------|



|-----------------|-----------------|-----------------|-----------------|
|-----------------|-----------------|-----------------|-----------------|
|-4-4-4-4-6-6-6-6-|46666666466666666|46666666466666666|-2-2-2-2-6-6-6-6-|
|-----------------|-----------------|-----------------|-----------------|

                   Bridge I
|-----------------|-----------------|-----------------|-----------------|
|-----------------|-----------------|-----------------|-----------------|
|-4-4-4-4-6-6-6-6-|-----------------|-6-----4---------|-2---------------|
|-----------------|-0-1-2-----------|-----------------|-----------------|


|-----------------|-----------------|-----------------|-----------------|
|-----------------|-----------------|-----------------|-----------------|
|------4----------|-----------------|-6-----4---------|-2---------------|
|-2---------------|-0-1-2-----------|-----------------|-----------------|


|-----------------|-----------------|
|-----------------|-----------------|
|---------1-------|-2-------4-------|
|-4---------------|-----------------|     

Repeat Intro II & Vocals

Bridge II
|-----------------|-----------------|-----------------|-----------------|
|-----------------|-----------------|-----------------|-----------------|
|-----------------|-6-----4---------|-2---------------|------4----------|
|-0-1-2-----------|-----------------|-----------------|-2---------------|     


|-----------------|-----------------|-----------------|-----------------|
|-----------------|-----------------|-----------------|-----------------|
|-----------------|-6-----4---------|-2---------------|---------1-------|
|-0-1-2-----------|-----------------|-----------------|-4---------------|     

                   Chorus
|-----------------|-----------------|-----------------|-----------------|
|-----------------|-----------------|-----------------|-----------------|
|-2-2-2-2-2-2--4--|-6------2--------|-4---------------|-6------2--------|
|-----------------|-----------------|---------6-------|-----------------|     



|-----------------|-----------------|-----------------|-----------------|
|-----------------|-----------------|-----------------|-----------------|
|--------4--------|-6------2--------|-4---------------|-----------------|
|-2---------------|-----------------|---------6-------|-4---------------|     



|-----------------|-----------------|-----------------|-----------------|
|-----------------|-----------------|-----------------|-----------------|
|-2-------4-------|-6-6-6-6-2-2-2-2-|-4-4-4-4---------|-6-6-6-6-2-2-2-2-|
|-----------------|-----------------|---------6-6-6-6-|-----------------|     



|-----------------|-----------------|-----------------|-----------------|
|-----------------|-----------------|-----------------|-----------------|
|---------4-4-4-4-|-6-6-6-6-2-2-2-2-|-4-4-4-4---------|-----------------|
|-2-2-2-2---------|-----------------|---------6-6-6-6-|-4---------------|     



|-----------------|-----------------|
|-----------------|-----------------|
|-2-------4-------|-6---------------|
|-----------------|-----------------|    


Interlude
|-----------------|-----------------|-----------------|
|-----------------|-----------------|-----------------|
|-4-6-------------|-R-R-R-R-R-R-R-R-|-R-R-R-R-R-R-R-R-|
|-----------------|-----------------|-----------------|    


[ Tab from: http://www.guitartabs.cc/tabs/h/hammerfall/the_dragon_lies_bleeding_btab.html ]
|-----------------|-----------------|-----------------|-----------------|
|-----------------|-----------------|-----------------|-----------------|
|-4-6-666-666-666-|-666-666-666-666-|-4-6-666-666-666-|-666-666-666-666-|
|-----------------|-----------------|-----------------|-----------------|     


 Vocals Enter
|-----------------|-----------------|-----------------|-----------------|
|-----------------|-----------------|-----------------|-----------------|
|-6-6-6-6---------|-1-1-1-1-6-6-6-6-|--------2--------|----------4------|
|---------2-2-2-2-|-----------------|-2---------------|-4---------------|     



|-----------------|-----------------|-----------------|-----------------|
|-----------------|-----------------|-----------------|-----------------|
|-6-6-6-6---------|-1-1-1-1-6-6-6-6-|--------2--------|-4--------6------|
|---------2-2-2-2-|-----------------|-2---------------|-----------------|      


 Solo
|-----------------|-----------------|-----------------|-----------------|
|-----------------|-----------------|-----------------|-----------------|
|-2-2-2-2-2-2-2-2-|-1-1-1-1-1-1-1-1-|-6------4--------|-2---------------|
|-----------------|-----------------|-----------------|-----------------|     



|-----------------|-----------------|-----------------|-----------------|
|-----------------|-----------------|-----------------|-----------------|
|-2-2-2-2-2-2-2-2-|-1-1-1-1-1-1-1-1-|-6------4--------|--------4--------|
|-----------------|-----------------|-----------------|-2---------------|     



|-----------------|-----------------|-----------------|-----------------|
|-----------------|-----------------|-----------------|-----------------|
|-222-222-222-222-|-111-111-111-111-|-6------4--------|-2---------------|
|-----------------|-----------------|-----------------|-----------------|     



|-----------------|-----------------|-----------------|-----------------|
|-----------------|-----------------|-----------------|-----------------|
|-222-222-222-222-|-111-111-111-111-|-6------4--------|---------4-------|
|-----------------|-----------------|-----------------|-2---------------|     



|-----------------|-----------------|-----------------|-----------------|
|-----------------|-----------------|-----------------|-----------------|
|-----------------|-6-----4---------|-2---------------|---------4-------|
|-0-1-2-----------|-----------------|-----------------|-2---------------|     



|-----------------|-----------------|-----------------|-----------------|
|-----------------|-----------------|-----------------|-----------------|
|-----------------|-6-----4---------|-2---------------|-----------------|
|-0-1-2-----------|-----------------|-----------------|-2---------------|     




|-----------------|
|-----------------|
|-2-------4-------|
|-----------------|     

Repeat Vocals & Bridge II

Chorus
|-----------------|-----------------|-----------------|-----------------|
|-----------------|-----------------|-----------------|-----------------|
|-6------2--------|-4---------------|-6------2--------|--------4--------|
|-----------------|----------6------|-----------------|-2---------------|     




|-----------------|-----------------|-----------------|-----------------|
|-----------------|-----------------|-----------------|-----------------|
|-6------2--------|-4---------------|-----------------|-2-------4-------|
|-----------------|---------6-------|-4---------------|-----------------|     




|-----------------|-----------------|-----------------|-----------------|
|-----------------|-----------------|-----------------|-----------------|
|-6-6-6-6-2-2-2-2-|-4-4-4-4---------|-6-6-6-6-2-2-2-2-|---------4-4-4-4-|
|-----------------|---------6-6-6-6-|-----------------|-2-2-2-2---------|     




|-----------------|-----------------|-----------------|-----------------|
|-----------------|-----------------|-----------------|-----------------|
|-6-6-6-6-2-2-2-2-|-4-4-4-4---------|-----------------|-2-2-2-2-2-4-----|
|-----------------|---------6-6-6-6-|-4---------------|-----------------|     



Chorus II (1/2 step up)
|-----------------|-----------------|-----------------|-----------------|
|-----------------|-----------------|-----------------|-----------------|
|-7------3--------|-5---------------|-7------3--------|--------5--------|
|-----------------|----------7------|-----------------|-3---------------|     




|-----------------|-----------------|-----------------|-----------------|
|-----------------|-----------------|-----------------|-----------------|
|-7------3--------|-5---------------|-----------------|-3-------5-------|
|-----------------|---------7-------|-5---------------|-----------------|     




|-----------------|-----------------|-----------------|-----------------|
|-----------------|-----------------|-----------------|-----------------|
|-7-7-7-7-3-3-3-3-|-5-5-5-5---------|-7-7-7-7-3-3-3-3-|---------5-5-5-5-|
|-----------------|---------7-7-7-7-|-----------------|-3-3-3-3---------|     



                                                       End
|-----------------|-----------------|-----------------|-----------------|
|-----------------|-----------------|-----------------|-----------------|
|-7-7-7-7-3-3-3-3-|-5-5-5-5---------|-----------------|-3-3-------------|
|-----------------|---------7-7-7-7-|-5---------------|-----------------|     




|-----------------|-----------------|     
|-----------------|-----------------|     
|-5-5-------------|-7-7-7-7-7-------|     
|-----------------|-----------------|     

Comments