Hammerfall - Templars Of Steel Chords & Tabs

 

Templars Of Steel Chords & Tabs

Hammerfall Chords & Tabs

Version: 1 Type: Tab 0 ratings
1 star 2 stars 3 stars 4 stars 5 stars
comments

Templars Of Steel Tab

Song:Templars of Steel
Artist:Hammerfall
Tuning:standard   		   starting here g1 &2 
				   switch roles each time
|---------------------------------|--------------------------
|---------------------------------|--------------------------
|9-9>------9-9>-9-9>--------------|9-9>------9-9>------------
|9-9>-10-7-9-9>-9-9>-10-7-4-5-4-2-|9-9>-10-7-9-9>-7-9-7-10^--
|7-7>--7-7-7-7>-7-7>--7-7-5-5-5-3-|7-7>--7-7-7-7>7-----------
|---------------------------------|--------------------------
|Intro (guitar 1)play each part 2x		 -- - -  *   |
|							     |	
|---------------------------------|--------------------------
|---------------------------------|--------------------------
|---------------------------------|9-9>------9-9>------------
|---------------------------------|9-9>-10-7-9-9>------------
|---------------------------------|7-7>--7-7-7-7>------------
|---------------------------------|--------------------------
Intro (guitar 2)play each part 2x
[ Tab from: http://www.guitartabs.cc/tabs/h/hammerfall/templars_of_steel_tab.html ]
|-------------------|----------------------------------------
|-------------------|----------------------------------------
|9-9>---------------|9-9-------------9-9-----------------9-9-
|9-9>-10-7-4-5-4-2--|9-9-999999-10-7-9-9-999--7-9-7-10^--9-9-
|7-7>--7-7-5-5-5-3--|7-7-777777--7-7-7-7-777-7-----------7-7-
|-------------------|----------------------------------------
|			 ------          --- -- - -  *	     |
|-------------------|----------------------------------------
|-------------------|----------------------------------------
|9-9>---------------|9-9-------------9-9-----------------9-9-
|9-9>-10-7-4-5-4-2--|9-9-999999-10-7-9-9-999-999999999---9-9-
|7-7>--7-7-5-5-5-3--|7-7-777777--7-7-7-7-777-777777777---7-7-
|-------------------|----------------------------------------
			 ------          --- ---------
|---------------------|--------------------------------------
|---------------------|--------------------------------------
|---------------------|4-9-9>-----------9-9--9-9>------------
|999999-10-7-4-5-4-2--|4-9-9>-999999-10-9-9--9-9>-999999-10-4
|777777--7-7-5-5-5-3--|2-7-7>-777777--7-7-7--7-7>-777777--7-5
|---------------------|--------------------------------------
 ------			      ------              ------
       	       	       Verse(both guitars)(2x)
|--------|--------------------------------------------------|
|--------|--------------------------------------------------|
|--------|4--2--------------------2-5---44-5-5/7------------|
|-5-4-2--|4--2--2-5----5\4----5\4-2-5-5-44-5-5/7-slide down-|
|-5-5-3--|2--0--2-5-55-5\4-55-5\4-0-3-5-22-3-3/5------------|
|--------|------0-3-33-3\2-33-3\2-----3---------------------|
	  Pre-chorus (both guitars)(1x)
|-----------------------------------------------------------
|-----------------------------------------------------------
|9-9--5-5-------7-7--9-9--5-5-------------------------------
|9-9--5-5--5-5--7-7--9-9--5-5--5-5----5\4----4\3----2--2-2--
|7-7--3-3--5-5--5-5--7-7--3-3--5-5-55-5\4-44-4\3-33-2--2-2--
|----------3-3-----------------3-3-33-3\2-22-2\1-11-0--0-0--
Chorus (both guitars)(1x)	   --     --     --
|-------------------------|            |-------------------|
|-------------------------|            |-------------------|
|5-5-------7-7--9-9-5-5-7-| play this  |--9----5-7---------|
|5-5--5-5--7-7--9-9-5-5-7-|before solo |-9-9--5--7-9-7-----|
|3-3--5-5--5-5--7-7-3-3-5-|both guitars|7----3--------10-9-|
|-----3-3-----------------|     1x     |-------------------|
						   - - - -
|------------------------------------------------------------
|12h13-12-13-13p12----------12h13-13-13^-p12-12--------------
|------------------14-12-14---------------------14-12h14-12^-
|------------------------------------------------------------
|------------------------------------------------------------
|------------------------------------------------------------
| Solo (guitar 1)					     |
|------------------------------------------------------------
|------------------------------------------------------------
|9-9----9----9----9-----5----5--7----7-------------9----9----
|9-9-99-9-99-9-99-9-99--5-55-5--7-77-7-77-9-7------9-99-9-99-
|7-7-77-7-77-7-77-7-77--3-33-3--5-55-5-55----10-9--7-77-7-77-
|------------------------------------------------------------
     --   --   --   --    --      --   -- - - - -    --   --
Under solo (guitar 2)
|------------------------------------------------------------
|---------12h13--12--12-13h15--13-13-13-13p12-------12h13-13-
|14^-(14)------14--14-------------------------14-12----------
|------------------------------------------------------------
|------------------------------------------------------------
|------------------------------------------------------------
|							     |
|------------------------------------------------------------
|------------------------------------------------------------
|9----9-----5----5--2----2--------------9----9----9----9-----
|9-99-9-99--5-55-5--2-22-2-22-----------9-99-9-99-9-99-9-99--
|7-77-7-77--3-33-3--0-00-0-00------0-2--7-77-7-77-7-77-7-77--
|-----------------------------3-2-3--------------------------
   --   --    --      --   -- - - -- -    --   --   --   --
|---------------------------------------------------------------
|13^-12-13-15^-17^(17)-15h17-15h17-13h15-13h15p13-12h13p12h13p12
|---------------------------------------------------------------
|---------------------------------------------------------------
|---------------------------------------------------------------
|---------------------------------------------------------------
|							        |
|---------------------------------------------------------------
|---------------------------------------------------------------
|5----5--7----7-------------9----9----9----9-----5----5--2----2-
|5-55-5--7-77-7-77-9-7------9-99-9-99-9-99-9-99--5-55-5--2-22-2-
|3-33-3--5-55-5-55----10-9--7-77-7-77-7-77-7-77--3-33-3--0-00-0-
|---------------------------------------------------------------
   --      --   -- - - - -    --   --   --   --    --      --
|--------------------------------------------------------------|
|--------------------------------------------------------------|
|14h15-14h15p14-12h14-12h14p12-10h12-10h12p10-9^---10^-(10)(10)|
|--------------------------------------------------------------|
|--------------------------------------------------------------|
|--------------------------------------------------------------|
|							       |
|--------------------------------------------------------------|
|--------------------------------------------------------------|
|-------------9----9----9----9-----5----5--2----2--------------|
|22-----------9-99-9-99-9-99-9-99--5-55-5--2-22-2-22-----------|
|00------0-2--7-77-7-77-7-77-7-77--3-33-3--0-00-0-00------0-2--|
|---3-2-3--------------------------------------------3-2-3-----|
 -- - - -- -    --   --   --   --    --      --   -- - - -- -
|-------------------------------|---------------------|
|-------------------------------|---------------------|
|11-------7--------14--------9--|11-------7--------9--|
|11-------7--------14--------9--|11-------7--------9--|
|-9-------5--------12--------7--|-9-------5--------7--|
|-------------------------------|---------------------|
After solo both guitars (3x)     end of Aft. solo (1x)
|------------------------------------------------------------
|------------------------------------------------------------
|11-11--7-7-------9-9--11-11--7-7----------------------------
|11-11--7-7--7-7--9-9--11-11--7-7--7----7\6----6\5----5\4----
|-9--9--5-5--7-7--7-7---9--9--5-5--7-77-7\6-66-6\5-55-5\4-44-
|------------5-5-------------------5-55-5\4-44-4\3-33-3\2-22-
Last Chorus both guitars(1x)	     --     --     --     --
|----------------------------------|--------------------------|
|----------------------------------|--------------------------|
|-----7-7-------9-9--11-11--7-7-9--|---11----7-9---------9-9--|
|4-4--7-7--7-7--9-9--11-11--7-7-9--|-11--11-7--9-9-7-----9-9--|
|4-4--5-5--7-7--7-7---9--9--5-5-7--|9------5--------10-9-7-7--|
|2-2-------5-5---------------------|--------------------------|
				    Outro (1x)   - - - -
- :palm mute
* :pinch harmonic
^ :bend
(10) :bend without playing
\ :slide down
> :rest
Comments