Hammerfall - Stone Cold Chords & Tabs

 

Stone Cold Chords & Tabs

Hammerfall Chords & Tabs

Version: 2 Type: Tab 0 ratings
1 star 2 stars 3 stars 4 stars 5 stars
comments

Stone Cold Tab

Band - Hammerfall
Song - Stone Cold
 
Intro:
eb|--------------------------------------------------------------------------------------------|
Bb|--------------------------------------------------------------------------------------------|
Gb|--------------------------------------------------------------------------------------------|
Db|-7-----9-----10----7----7-----9-----10----7----12-------10-------9-----12-------10-------9--|
Ab|-7-7-7-7-7-7-7--7--7----8-8-8-8-8-8-8--8--8----10-10-10-10-10-10-10-10-10-10-10-10-10-10-10-|
Eb|--------------------------------------------------------------------------------------------|
                                            
eb|--------------------------------------------------------------------------------------|      
Bb|--------------------------------------------------------------------------------------|     
Gb|--------------------------------------------------------------------------------------|     
Db|-6-----7-----9---10---9---7---6--7-----9-----10----7----7-----9-----10----7--12-------|     
Ab|-7-7-7-7-7-7-7-7-7--7-7-7-7-7-7--7-7-7-7-7-7-7--7--7----8-8-8-8-8-8-8--8--8--10-10-10-|     
Eb|--------------------------------------------------------------------------------------|      

eb|----------------------------------------------------------------------|
Bb|----------------------------------------------------------------------|
Gb|---------------------------------------------------------------2------|
Db|-10-------9-----12-------10-------9---6-----7-----9--6---------2------|
Ab|-10-10-10-10-10-10-10-10-10-10-10-10--7-7-7-7-7-7-7--7---------0------|
Eb|----------------------------------------------------------------------|
  
eb|-----------------------------------------------------------------------|
Bb|---------------------------------------------------------8-----6-------|
Gb|-----9---------9------5---------5------9---------9-----7-----5---5-----|
Db|-----7---------7------3---------3------7---------7---5-----3-----------| x2
Ab|-0-0---0-0-0-0----0-0---0-0-0-0----0-0---0-0-0-0-----------------------|
Eb|-----------------------------------------------------------------------|


Verse:
eb|-----------------------------------------------------------------------|
Bb|----------------------------------------------------------10-----------|
Gb|--------------------------------------------------------9------5-------|
Db|-2-2-2-2-2-2-2-2-2-2-2-2-------2-2-2-2-2-2-2-2-2-2-2--7--------3-------|
Ab|-0-0-0-0-0-0-0-0-0-0-0-0-----3-0-0-0-0-0-0-0-0-0-0-0-------------------|
Eb|-------------------------1-3-------------------------------------------|

eb|-----------------------------------------------------------------------|
Bb|----------------------------------------------------------10-----------|
Gb|--------------------------------------------------------9------10--12--|
Db|-2-2-2-2-2-2-2-2-2-2-2-2-------2-2-2-2-2-2-2-2-2-2-2--7--------10--12--|
Ab|-0-0-0-0-0-0-0-0-0-0-0-0-----3-0-0-0-0-0-0-0-0-0-0-0-----------8---10--|
Eb|-------------------------1-3-------------------------------------------|

Brige:
eb|-----------------------------------------------------------------------------------------|
Bb|-----------------------------------------------------------------------------------------|
Gb|------------2---5-4----------------2---5-7----------------2---5-2------------------------|
Db|-3--3--5-5--2---5-5-----3--3--5-5--2---5-5-----3--3--5-5--2---5-2-----3--3--5-5--2-------|
Ab|-3--3--5-5--0-----------3--3--5-5--0-----------3--3--5-5--0-----------3--3--5-5--2-------|
Eb|-1--1--3-3--------------1--1--3-3--------------1--1--3-3--------------1--1--3-3--0-------|

eb|-----------------------------------|
Bb|-----------------------------------|
Gb|-9-9--9-9--9-----------------------|
Db|-9-9--9-9--9-----------------------|
Ab|-7-7--7-7--7--7-5-3-3h5p3-2--------|
Eb|-----------------------------------|

Chorus:
eb|-----------------------------------------------------------------------|
Bb|---------------------------------------------------------8-----6-------|
Gb|-----9---------9------5---------5------9---------9-----7-----5---5-----|
Db|-----7---------7------3---------3------7---------7---5-----3-----------| x2
Ab|-0-0---0-0-0-0----0-0---0-0-0-0----0-0---0-0-0-0-----------------------|
Eb|-----------------------------------------------------------------------|

 
Post-Chorus:
eb|-----------------------------------------------|
Bb|-----------------------------------------------|
Gb|-----------------------------------------2-----|
Db|-2-2-2-2-2-2-2-2-2-2-2-2-2-2-2-2-2-2-2-2-2-----|
Ab|-0-0-0-0-0-0-0-0-0-0-0-0-0-0-0-0-0-0-0-0-0-----|
Eb|-----------------------------------------------|


Verse:
eb|-----------------------------------------------------------------------|
Bb|----------------------------------------------------------10-----------|
Gb|--------------------------------------------------------9------5-------|
Db|-2-2-2-2-2-2-2-2-2-2-2-2-------2-2-2-2-2-2-2-2-2-2-2--7--------3-------|
Ab|-0-0-0-0-0-0-0-0-0-0-0-0-----3-0-0-0-0-0-0-0-0-0-0-0-------------------|
Eb|-------------------------1-3-------------------------------------------|

eb|-----------------------------------------------------------------------|
Bb|----------------------------------------------------------10-----------|
Gb|--------------------------------------------------------9------10--12--|
Db|-2-2-2-2-2-2-2-2-2-2-2-2-------2-2-2-2-2-2-2-2-2-2-2--7--------10--12--|
Ab|-0-0-0-0-0-0-0-0-0-0-0-0-----3-0-0-0-0-0-0-0-0-0-0-0-----------8---10--|
Eb|-------------------------1-3-------------------------------------------|
[ Tab from: http://www.guitartabs.cc/tabs/h/hammerfall/stone_cold_tab_ver_2.html ]
Brige:
eb|-----------------------------------------------------------------------------------------|
Bb|-----------------------------------------------------------------------------------------|
Gb|------------2---5-4----------------2---5-7----------------2---5-2------------------------|
Db|-3--3--5-5--2---5-5-----3--3--5-5--2---5-5-----3--3--5-5--2---5-2-----3--3--5-5--2-------|
Ab|-3--3--5-5--0-----------3--3--5-5--0-----------3--3--5-5--0-----------3--3--5-5--2-------|
Eb|-1--1--3-3--------------1--1--3-3--------------1--1--3-3--------------1--1--3-3--0-------|

eb|-----------------------------------|
Bb|-----------------------------------|
Gb|-9-9--9-9--9-----------------------|
Db|-9-9--9-9--9-----------------------|
Ab|-7-7--7-7--7--7-5-3-3h5p3-2--------|
Eb|-----------------------------------|

Chorus:
eb|-----------------------------------------------------------------------|
Bb|---------------------------------------------------------8-----6-------|
Gb|-----9---------9------5---------5------9---------9-----7-----5---5-----|
Db|-----7---------7------3---------3------7---------7---5-----3-----------| x4
Ab|-0-0---0-0-0-0----0-0---0-0-0-0----0-0---0-0-0-0-----------------------|
Eb|-----------------------------------------------------------------------|
 
eb|--------------------------------------------------------------------------------------------|
Bb|--------------------------------------------------------------------------------------------|
Gb|-5------------------------------------------------8-----8-----8-----------------------------|
Db|-5------6------8------5-----5-----5-6-----6-----6-8-----8-----8-8-----8-----8-6-----6-----6-|
Ab|-3------6------8------5-----5-----5-6-----6-----6-6-6-6-6-6-6-6-8-----8-----8-6-----6-----6-|
Eb|--------4------6------3-3-3-3-3-3-3-4-4-4-4-4-4-4---------------6-6-6-6-6-6-6-4-4-4-4-4-4-4-|

eb|----------------------------------------------------------|
Bb|----------------------------------------------------------|
Gb|----------------------------------------3----------5---3--|
Db|-5---5---3-5---5-----5---3-5-----3---3--3--3--5----5---3--|
Ab|-5---5---3-5---5-----5---3-5-----3---3--1--3--5----3---1--|
Eb|-3-3-3-3-3-3-3-3-3-3-3-3-3-3-3-3-1-1-1-----1--3-----------|


eb|----------------------------------------------------------|
Bb|----------------------------------------------------------|
Gb|----------------------------------------3----------5---3--|
Db|-5---5---3-5---5-----5---3-5-3-5-3---3--3--3--5----5---3--|
Ab|-5---5---3-5---5-----5---3-5-3-5-3---3--1--3--5----3---1--|
Eb|-3-3-3-3-3-3-3-3-3-3-3-3-3-3-3-3-1-1-1-----1--3-----------|


eb|----------------------------------------------------------|
Bb|----------------------------------------------------------|
Gb|-7---7-----7---7-----7-----7-----5---5--3--5--7-----------|
Db|-7---7---5-7---7-----7---5-7-----5---5--3--5--7----5---3--|
Ab|-5-5-5-5-5-5-5-5-5-5-5-5-5-5-5-5-3-3-3-----3--5----5---3--|
Eb|---------------------------------------------------3---1--|


eb|----------------------------------------------------------|
Bb|----------------------------------------------------------|
Gb|-7---7-----7---7-----7-----7---7-5---5--3--5--7-----------|
Db|-7---7---5-7---7-----7---5-7-5-7-5---5--3--5--7----7---5--|
Ab|-5-5-5-5-5-5-5-5-5-5-5-5-5-5-5-5-3-3-3-----3--5----7---5--|
Eb|---------------------------------------------------5---3--|


Bridge:
eb|-----------------------------------------------------------------------------------------|
Bb|-----------------------------------------------------------------------------------------|
Gb|------------2---5-4----------------2---5-7----------------2---5-2------------------------|
Db|-3--3--5-5--2---5-5-----3--3--5-5--2---5-5-----3--3--5-5--2---5-2-----3--3--5-5--2-------|
Ab|-3--3--5-5--0-----------3--3--5-5--0-----------3--3--5-5--0-----------3--3--5-5--2-------|
Eb|-1--1--3-3--------------1--1--3-3--------------1--1--3-3--------------1--1--3-3--0-------|

eb|------------------------------------------|
Bb|------------------------------------------|
Gb|-9-9--9-9--9--9-9--9-9--9--9-9--9-9--9----|
Db|-9-9--9-9--9--9-9--9-9--9--9-9--9-9--9----|
Ab|-7-7--7-7--7--7-7--7-7--7--7-7--7-7--7----|
Eb|------------------------------------------|

                                                                        
eb|----------------------------------------------------|
Bb|----------------------------------------------------|
Gb|--------------------------------------------2--2----|
Db|--------------------------------------------2--2----|
Ab|-0-0-0-0-0-0-0-0-0-0-0-0-0-0-0-0-0-0-----3--0--0----|
Eb|-------------------------------------1-3------------|

eb|---------------------------------------------------------------------|
Bb|---------------------------------------------------------------------|
Gb|-------------------------------------------9-9--9-9-9----------------|
Db|-------------------------------------------9-9--9-9-9----------------|
Ab|0-0-0-0-0-0-0-0-0-0-0-0-0-0-0-0-0-0-----3--7-7--7-7-7-7-5-3-3h5p3-2--|
Eb|------------------------------------1-3------------------------------|

Chorus:
eb|-----------------------------------------------------------------------|
Bb|---------------------------------------------------------8-----6-------|
Gb|-----9---------9------5---------5------9---------9-----7-----5---5-----|
Db|-----7---------7------3---------3------7---------7---5-----3-----------| x4
Ab|-0-0---0-0-0-0----0-0---0-0-0-0----0-0---0-0-0-0-----------------------|
Eb|-----------------------------------------------------------------------|
  
Outro:
eb|--------------------------------------------------------------------------------------------|
Bb|--------------------------------------------------------------------------------------------|
Gb|--------------------------------------------------------------------------------------------|
Db|-7-----9-----10----7----7-----9-----10----7----12-------10-------9-----12-------10-------9--|
Ab|-7-7-7-7-7-7-7--7--7----8-8-8-8-8-8-8--8--8----10-10-10-10-10-10-10-10-10-10-10-10-10-10-10-|
Eb|--------------------------------------------------------------------------------------------|

eb|--------------------------------------------------------------------|
Bb|--------------------------------------------------------------------|
Gb|--------------------------------------------------------------------|
Db|-6-----7-----9--10--9--7--6h7p6h7p6h7p6h7p6h7p6h7p6h7----------7----|
Ab|-7-7-7-7-7-7-7-------------------------------------------------7----|
Eb|---------------------------------------------------------------5----|
Comments