Hammerfall - Renegade Chords & Tabs

 

Renegade Chords & Tabs

Hammerfall Chords & Tabs

Version: 1 Type: Bass Tab 0 ratings
1 star 2 stars 3 stars 4 stars 5 stars
comments

Renegade Bass Tab

G||--------------------------|--------------------------|
D||--------------------------|--------------------------|
A||--0--0--0--0--0--0--0--0--|--0--0--0--0--0--0--------|
E||--------------------------|--------------------3--3--|


                                                      
--------------------------|--------------------------|
--------------------------|--------------------------|
--------------------------|--------------------------|
--1--1--1--1--1--1--1--1--|--3--3--3--3--3--3--0--0--|


                                                      
--------------------------|--------------------------|
--------------------------|--------------------------|
--0--0--0--0--0--0--0--0--|--0--0--0--0--0--0--------|
--------------------------|--------------------3--3--|


                                                      
--------------------------|--------------------------|
--------------------------|--------------------------|
--------------------------|--------------7-----3-----|
--1--1--1--1--1--1--1--1--|--3--3--3--3-----0-----0--|


                                                      
--------------------------|--------------------------|
--------------------------|--------------------------|
--0--0--0--0--0--0--0--0--|--0--0--0--0--0--0--------|
--------------------------|--------------------3--3--|


                                                      
--------------------------|--------------------------|
--------------------------|--------------------------|
--------------------------|--------------------------|
--1--1--1--1--1--1--1--1--|--3--3--3--3--3--3--0--0--|


                                                      
--------------------------|--------------------------|
--------------------------|--------------------------|
--0--0--0--0--0--0--0--0--|--0--0--0--0--0--0--------|
--------------------------|--------------------3--3--|


                                                      
--------------------------|--------------------------|
--------------------------|--------------------------|
--------------------------|--------------7-----3-----|
--1--1--1--1--1--1--1--1--|--3--3--3--3-----0-----0--|


                                                      
--------------------------|--------------------------|
--------------------------|--------------------------|
--0--0--0--0--0--0--0--0--|--0--0--0--0--7-----3-----|
--------------------------|-----------------0-----0--|


                                                      
--------------------------|--------------------------|
--------------------------|--------------------------|
--0--0--0--0--0--0--0--0--|--0--0--0--0--0--0--------|
--------------------------|--------------------3--3--|


                                                      
--------------------------|--------------------------|
--------------------------|--------------------------|
--------------------------|--------------------------|
--1--1--1--1--1--1--1--1--|--1--1--1--1--1--1--0--0--|


                                                      
--------------------------|--------------------------|
--------------------------|--------------------------|
--5--5--5--5--5--5--5--5--|--3--3--3--3--2--2--2--2--|
--------------------------|--------------------------|


                                                      
--------------------------|--------------------------|
--------------------------|--------------------------|
--0--0--0--0--0--0--0--0--|--0--0--0--0--7-----3-----|
--------------------------|-----------------0-----0--|


                                                      
--------------------------|--------------------------|
--------------------------|--------------------------|
--0--0--0--0--0--0--0--0--|--0--0--0--0--0--0--------|
--------------------------|--------------------3--3--|


                                                      
--------------------------|--------------------------|
--------------------------|--------------------------|
--------------------------|--------------------------|
--1--1--1--1--1--1--1--1--|--1--1--1--1--1--1--0--0--|


                                                      
--------------------------|--------------------------|
--------------------------|--------------------------|
--5--5--5--5--5--5--5--5--|--3--3--3--3--2--2--2--2--|
--------------------------|--------------------------|


                                                      
--------------------------|--------------------------|
--------------------------|--------------------------|
--0--0--0--0--0--0--0--0--|--------------------------|
--------------------------|--3--3--3--3--3--3--3--3--|


                                                      
--------------------------|--------------------------|
--------------------------|--------------------------|
--------------------------|--------------------------|
--1--1--1--1--1--1--1--1--|--1--1--1--1--1--1--3--3--|


                                                      
--------------------------|--------------------------|
--------------------------|--------------------------|
--0--0--0--0--0--0--0--0--|--0--0--0--0--7--7--3--3--|
--------------------------|--------------------------|


                                                      
--------------------------|--------------------------|
--------------------------|--------------------------|
--------------------------|--------------------------|
--3--3--3--3--3--3--3--3--|--3--3--3--3--0--0--3--3--|


                                                      
--------------------------|--------------------------|
--------------------------|--------------------------|
--------------------------|--------------------------|
--5--5--5--5--3--3--3--3--|--1--1--1--1--0--0--0--0--|


                                                      
--------------------------|--------------------------|
--------------------------|--------------------------|
--------------------------|--------------------------|
--1--1--1--1--1--1--1--1--|--1--1--1--1--3--3--3--3--|


                                                      
--------------------------|--------------------------|
--------------------------|--------------------------|
--------------------------|--------------7--7--3--3--|
--5--5--5--5--5--5--5--5--|--5--5--5--5--------------|


                                                      
--------------------------|--------------------------|
--------------------------|--------------------------|
--------------------------|--------------------------|
--3--3--3--3--3--3--3--3--|--3--3--3--3--3--3--3--3--|


                                                                             
--------------------------|-------------------|-----------------------------|
--------------------------|-------------------|-----------------------------|
--------------------------|-------------------|-----------------------------|
--0--0--0--0--0--0--0--0--|--0----------------|--5--------5--------5--------|


                                                        
-------------------------|-----------------------------|
-------------------------|-----------------------------|
-------------------------|-----------------------------|
----5--5--5--5--5--5--5--|--1--------1--------1--------|


                                                        
-------------------------|-----------------------------|
-------------------------|-----------------------------|
-------------------------|--3--------3--------3--------|
----1--1--1--1--1--1--1--|-----------------------------|


                                                                                
-------------------------|--------------------------|--------------------------|
-------------------------|--------------------------|--------------------------|
----3--3--3--3--3--3--3--|--------------------------|--------------------------|
-------------------------|--3--3--3--3--3--3--3--3--|--1--1--1--1--0--0--0--0--|


                                                        
-----------------------------|-------------------------|
-----------------------------|-------------------------|
-----------------------------|-------------------------|
--5--------5--------5--------|----5--5--5--5--5--5--5--|


                                                        
-----------------------------|-------------------------|
-----------------------------|-------------------------|
-----------------------------|-------------------------|
--1--------1--------1--------|----1--1--1--1--1--1--1--|


                                                        
-----------------------------|-------------------------|
-----------------------------|-------------------------|
--3--------3--------3--------|----3--3--3--3--3--3--3--|
-----------------------------|-------------------------|


                                                      
--------------------------|--------------------------|
--------------------------|--------------------------|
--------------------------|--------------------------|
--3--3--3--3--3--3--3--3--|--1--1--1--1--0--0--0--0--|


                                                      
--------------------------|--------------------------|
--------------------------|--------------------------|
--0--0--0--0--0--0--0--0--|--0--0--0--0--7-----3-----|
--------------------------|-----------------0-----0--|


                                                      
--------------------------|--------------------------|
--------------------------|--------------------------|
--0--0--0--0--0--0--0--0--|--0--0--0--0--0--0--------|
--------------------------|--------------------3--3--|


                                                      
--------------------------|--------------------------|
--------------------------|--------------------------|
--------------------------|--------------------------|
--1--1--1--1--1--1--1--1--|--1--1--1--1--1--1--0--0--|


                                                      
--------------------------|--------------------------|
--------------------------|--------------------------|
--5--5--5--5--5--5--5--5--|--3--3--3--3--2--2--2--2--|
--------------------------|--------------------------|


                                                      
--------------------------|--------------------------|
--------------------------|--------------------------|
--0--0--0--0--0--0--0--0--|--0--0--0--0--7-----3-----|
--------------------------|-----------------0-----0--|


                                                      
--------------------------|--------------------------|
--------------------------|--------------------------|
--0--0--0--0--0--0--0--0--|--0--0--0--0--0--0--------|
--------------------------|--------------------3--3--|


                                                      
--------------------------|--------------------------|
--------------------------|--------------------------|
--------------------------|--------------------------|
--1--1--1--1--1--1--1--1--|--1--1--1--1--1--1--0--0--|

[ Tab from: http://www.guitartabs.cc/tabs/h/hammerfall/renegade_btab.html ]
                                                      
--------------------------|--------------------------|
--------------------------|--------------------------|
--5--5--5--5--5--5--5--5--|--3--3--3--3--2--2--2--2--|
--------------------------|--------------------------|


                                                      
--------------------------|--------------------------|
--------------------------|--------------------------|
--0--0--0--0--0--0--0--0--|--------------------------|
--------------------------|--3--3--3--3--3--3--3--3--|


                                                      
--------------------------|--------------------------|
--------------------------|--------------------------|
--------------------------|--------------------------|
--1--1--1--1--1--1--1--1--|--1--1--1--1--1--1--3--3--|


                                                      
--------------------------|--------------------------|
--------------------------|--------------------------|
--0--0--0--0--0--0--0--0--|--0--0--0--0--7--7--3--3--|
--------------------------|--------------------------|


                                                      
--------------------------|--------------------------|
--------------------------|--------------------------|
--------------------------|--------------------------|
--3--3--3--3--3--3--3--3--|--3--3--3--3--0--0--3--3--|


                                                      
--------------------------|--------------------------|
--------------------------|--------------------------|
--------------------------|--------------------------|
--5--5--5--5--3--3--3--3--|--1--1--1--1--0--0--0--0--|


                                                      
--------------------------|--------------------------|
--------------------------|--------------------------|
--------------------------|--------------------------|
--1--1--1--1--1--1--1--1--|--1--1--1--1--3--3--3--3--|


                                                      
--------------------------|--------------------------|
--------------------------|--------------------------|
--------------------------|--------------7--7--3--3--|
--5--5--5--5--5--5--5--5--|--5--5--5--5--------------|


                                                      
--------------------------|--------------------------|
--------------------------|--------------------------|
--------------------------|--------------------------|
--3--3--3--3--3--3--3--3--|--3--3--3--3--3--3--3--3--|


                                                                             
--------------------------|-------------------|-----------------------------|
--------------------------|-------------------|-----------------------------|
--------------------------|-------------------|-----------------------------|
--0--0--0--0--0--0--0--0--|--0----------------|--5--------5--------5--------|


                                                        
-------------------------|-----------------------------|
-------------------------|-----------------------------|
-------------------------|-----------------------------|
----5--5--5--5--5--5--5--|--1--------1--------1--------|


                                                        
-------------------------|-----------------------------|
-------------------------|-----------------------------|
-------------------------|--3--------3--------3--------|
----1--1--1--1--1--1--1--|-----------------------------|


                                                                                
-------------------------|--------------------------|--------------------------|
-------------------------|--------------------------|--------------------------|
----3--3--3--3--3--3--3--|--------------------------|--------------------------|
-------------------------|--3--3--3--3--3--3--3--3--|--1--1--1--1--0--0--0--0--|


                                                        
-----------------------------|-------------------------|
-----------------------------|-------------------------|
-----------------------------|-------------------------|
--5--------5--------5--------|----5--5--5--5--5--5--5--|


                                                        
-----------------------------|-------------------------|
-----------------------------|-------------------------|
-----------------------------|-------------------------|
--1--------1--------1--------|----1--1--1--1--1--1--1--|


                                                        
-----------------------------|-------------------------|
-----------------------------|-------------------------|
--3--------3--------3--------|----3--3--3--3--3--3--3--|
-----------------------------|-------------------------|


                                                                               
--------------------------|--------------------------|--7-------7-------7-----|
--------------------------|--------------------------|-------7-------7-----7--|
--------------------------|--------------------------|------------------------|
--3--3--3--3--3--3--3--3--|--1--1--1--1--0--0--0--0--|------------------------|


                                                                               
--7--------7--------7-----|------------------------|--------------------------|
-----7--7-----7--7-----7--|--7-------7-------7-----|--7--------7--------7-----|
--------------------------|-------7-------7-----7--|-----7--7-----7--7-----7--|
--------------------------|------------------------|--------------------------|


                                                                               
------------------------|--------------------------|--------------------------|
--5-------5-------5-----|--5--------5--------5-----|--7-----7-----7-----7-----|
-------5-------5-----5--|-----5--5-----5--5-----5--|-----7-----7-----7-----7--|
------------------------|--------------------------|--------------------------|


                                                                               
--5-----5-----5-----5-----|--7-------7-------7-----|--7--------7--------7-----|
-----5-----5-----5-----5--|-------7-------7-----7--|-----7--7-----7--7-----7--|
--------------------------|------------------------|--------------------------|
--------------------------|------------------------|--------------------------|


                                                                             
------------------------|--------------------------|--4-------4-------4-----|
--7-------7-------7-----|--7--------7--------7-----|-------4-------4-----4--|
-------7-------7-----7--|-----7--7-----7--7-----7--|------------------------|
------------------------|--------------------------|------------------------|


                                                                          
--4--------4--------4-----|--9-----9-----9-----9-----|-------------------|
-----4--4-----4--4-----4--|-----9-----9-----9-----9--|-------------------|
--------------------------|--------------------------|-------------------|
--------------------------|--------------------------|--0----------------|


                                                      
--------------------------|--------------------------|
--------------------------|--------------------------|
--------------------------|--------------------------|
--2--2--2--2--2--2--2--2--|--2--2--2--2--4--5--4--0--|


                                                                             
--------------------------|----------------------|--------------------------|
--------------------------|----------------------|--------------------------|
--------------------------|-------------0--------|--------------------------|
--2--2--2--2--2--2--2--2--|----2--2--2-----------|--2--2--2--2--2--2--2--2--|


                                                                   
--------------------------|-------------------|-------------------|
--------------------------|-------------------|-------------------|
--------------------------|--5----------------|-------------------|
--2--2--2--2--4--5--4--0--|-------------------|--0----------------|


                                                      
--------------------------|--------------------------|
--------------------------|--------------------------|
--------------------------|--------------------------|
--2--2--2--2--2--2--2--2--|--2--2--2--2--4--5--4--0--|


                                                                             
--------------------------|----------------------|--------------------------|
--------------------------|----------------------|--------------------------|
--------------------------|-------------0--------|--------------------------|
--2--2--2--2--2--2--2--2--|----2--2--2-----------|--2--2--2--2--2--2--2--2--|


                                                                   
--------------------------|-------------------|-------------------|
--------------------------|-------------------|-------------------|
--------------------------|-------------------|-------------------|
--2--2--2--2--4--5--4--0--|--2----------------|--0----------------|


                                                                             
--7-------7-------7-----|--7--------7--------7-----|------------------------|
-------7-------7-----7--|-----7--7-----7--7-----7--|--7-------7-------7-----|
------------------------|--------------------------|-------7-------7-----7--|
------------------------|--------------------------|------------------------|


                                                                               
--------------------------|------------------------|--------------------------|
--7--------7--------7-----|--5-------5-------5-----|--5--------5--------5-----|
-----7--7-----7--7-----7--|-------5-------5-----5--|-----5--5-----5--5-----5--|
--------------------------|------------------------|--------------------------|


                                                                               
--------------------------|--5-----5-----5-----5-----|--7-------7-------7-----|
--7-----7-----7-----7-----|-----5-----5-----5-----5--|-------7-------7-----7--|
-----7-----7-----7-----7--|--------------------------|------------------------|
--------------------------|--------------------------|------------------------|


                                                                               
--7--------7--------7-----|------------------------|--------------------------|
-----7--7-----7--7-----7--|--7-------7-------7-----|--7--------7--------7-----|
--------------------------|-------7-------7-----7--|-----7--7-----7--7-----7--|
--------------------------|------------------------|--------------------------|


                                                                               
--4-------4-------4-----|--4--------4--------4-----|--9-----9-----9-----9-----|
-------4-------4-----4--|-----4--4-----4--4-----4--|-----9-----9-----9-----9--|
------------------------|--------------------------|--------------------------|
------------------------|--------------------------|--------------------------|
Comments