Hammerfall - Remember Yesterday Chords & Tabs

 

Remember Yesterday Chords & Tabs

Hammerfall Chords & Tabs

Version: 1 Type: Bass Tab 0 ratings
1 star 2 stars 3 stars 4 stars 5 stars
comments

Remember Yesterday Bass Tab

                              Remember yesterday                                


                                 Oscar Dronjak, Joacim Cans and Jesper Strömblad
Tabbed by Martin Kahnberg (aka Owain ap Nghân)



    (Bass)                                                                            
F#||------------------|------------------|------------------|------------------|
C#||------------------|------------------|------------------|------------------|
G#||------------------|------------------|------------------|------------------|
D#||------------------|------------------|------------------|------------------|


                                                                            
------------------|------------------|------------------|------------------|
------------------|------------------|------------------|------------------|
------------------|------------------|------------------|------------------|
------------------|------------------|------------------|------------------|


Verse 1                                                                            
------------------|------------------|------------------|------------------|
------------------|------------------|------------------|------------------|
------------------|------------------|------------------|------------------|
------------------|------------------|------------------|------------------|


                                                                             
------------------|------------------|------------------|-------------------|
------------------|------------------|------------------|-------------------|
------------------|------------------|------------------|-------------------|
------------------|------------------|------------------|--------------0/---|


                                                                                
-------------------|------------------|-------------------|--------------------|
-------------------|------------------|-------------------|--------------------|
-------------------|------------------|-------------------|--------------------|
--5----------------|------------------|--3----------------|--1------0----------|


                                                             
-------------------|-------------------|--------------------|
-------------------|-------------------|--12----------------|
-------------------|-------------------|--------------------|
--5----------------|--7/---------------|--------------------|


                    Bridge                                                            
-------------------|-------------------|-------------------|-------------------|
-------------------|-------------------|-------------------|-------------------|
-------------------|--3----------------|-------------------|--5----------------|
--1----------------|-------------------|--3----------------|-------------------|


                                                             
-------------------|--------------------|-------------------|
-------------------|--------------------|-------------------|
--0----------------|--------------------|-------------------|
-------------------|--1--------3--------|--5----------------|


                                                                
-------------------|-------------------|-----------------------|
-------------------|-------------------|-----------------------|
-------------------|-------------------|-----------------------|
--3----------------|--1----------------|--1--1--1----1--3------|


Chorus                                                              
-------------------|---------------------|-------------------|
-------------------|---------------------|-------------------|
-------------------|--3----3--------3----|--2----------------|
--0----------------|---------------------|-------------------|


                                                              
--------------------|-------------------|--------------------|
--------------------|-------------------|--------------------|
--------------------|-------------------|--3--------2--------|
--0--------2--------|--3----------------|--------------------|


                                                                       
-------------------|------------------------------|-------------------|
--0----------------|------12------------12--------|-------------------|
--0/---------------|--12------12----12------12----|-------------------|
-------------------|------------------------------|--0----------------|


                                                               
---------------------|-------------------|--------------------|
---------------------|-------------------|--------------------|
--3----3--------3----|--2----------------|--------------------|
---------------------|-------------------|--0--------2--------|


                                         Riff                    
-------------------|--------------------|-------------------|
-------------------|--------------------|-------------------|
-------------------|--3--------2--------|--0/---------------|
--3----------------|--------------------|-------------------|


                                                              
--------------------|-------------------|--------------------|
--------------------|-------------------|--------------------|
--12----------------|-------------------|---------0----------|
--------------------|--3----------------|--1-----------------|


Verse 2                                                            
-------------------|-------------------|-------------------|
-------------------|-------------------|-------------------|
--0----------------|--0----------------|-------------------|
-------------------|-------------------|--3----------------|


                                                             
--------------------|-------------------|-------------------|
--------------------|-------------------|-------------------|
---------0----------|--0----------------|--2/---------------|
--1------0----------|-------------------|--3----------------|


                                        Bridge                                        
-------------------|-------------------|-------------------|-------------------|
-------------------|--3----------------|-------------------|-------------------|
--5----------------|-------------------|--3----------------|-------------------|
-------------------|--1----------------|-------------------|--3/---------------|


                                                             
-------------------|-------------------|--------------------|
-------------------|-------------------|--------------------|
--5----------------|--0----------------|--------------------|
-------------------|-------------------|--1--------3--------|


                                                            
-------------------|-------------------|-------------------|
-------------------|-------------------|-------------------|
-------------------|-------------------|-------------------|
--5----------------|--3----------------|--1----------------|


                        Chorus                                          
-----------------------|-------------------|---------------------|
-----------------------|-------------------|---------------------|
-----------------------|-------------------|--3----3--------3----|
--1--1--1----1--3------|--0----------------|---------------------|


                                                             
-------------------|--------------------|-------------------|
-------------------|--------------------|-------------------|
--2----------------|--------------------|-------------------|
-------------------|--0--------2--------|--3----------------|

[ Tab from: http://www.guitartabs.cc/tabs/h/hammerfall/remember_yesterday_btab.html ]
                                                                        
--------------------|-------------------|------------------------------|
--------------------|--0----------------|------12------------12--------|
--3--------2--------|--0/---------------|--12------12----12------12----|
--------------------|-------------------|------------------------------|


                                                              
-------------------|---------------------|-------------------|
-------------------|---------------------|-------------------|
-------------------|--3----3--------3----|--2----------------|
--0----------------|---------------------|-------------------|


                                                              
--------------------|-------------------|--------------------|
--------------------|-------------------|--------------------|
--------------------|-------------------|--3--------2--------|
--0--------2--------|--3----------------|--------------------|


                                           Stick                    
-------------------|----------------------|-------------------|
-------------------|----------------------|-------------------|
--0----------------|--0------0--0----0----|-------------------|
-------------------|----------------------|--1----------------|


                                                                 
-------------------|-------------------|------------------------|
-------------------|-------------------|------------------------|
--0----------------|--2----------------|--0--0--0---------------|
-------------------|--3----------------|-------------3--3--3----|


                                                            
-------------------|-------------------|-------------------|
-------------------|-------------------|-------------------|
-------------------|--0----------------|--2----------------|
--1----------------|-------------------|--3----------------|


                         Solo starts                                               
------------------------|-------------------|--------------------------|
------------------------|-------------------|--------------------------|
------------------------|--0----------------|--0--0--0--0--0--0--0--0--|
--1--1--1----3--3--3----|-------------------|--------------------------|


Solo                                                                   
-------------------|-------------------|--------------------------|
-------------------|-------------------|--------------------------|
-------------------|--5----------------|--------------------------|
--1----------------|-------------------|--5--5--5--5--5--5--5--3--|


                                                                                
------------------|-------------------|--------------------|-------------------|
------------------|-------------------|--------------------|-------------------|
------------------|-------------------|--------------------|--0----------------|
------------------|--1----------------|--1--------3--------|-------------------|


                                                            
-------------------|-------------------|-------------------|
-------------------|-------------------|-------------------|
--0----------------|-------------------|--5----------------|
-------------------|--1----------------|-------------------|


                                                                  
--------------------------|------------------|-------------------|
--------------------------|------------------|-------------------|
--------------------------|------------------|-------------------|
--5--5--5--5--5--5--5--3--|------------------|--1----------------|


                         Chorus                                          
------------------------|-------------------|---------------------|
------------------------|-------------------|---------------------|
------------------------|-------------------|--3----3--------3----|
--1--1--1--1--1--3------|--0----------------|---------------------|


                                                             
-------------------|--------------------|-------------------|
-------------------|--------------------|-------------------|
--2----------------|--------------------|-------------------|
-------------------|--0--------2--------|--3----------------|


                                                                    
--------------------|-------------------|--------------------------|
--------------------|--0----------------|--------------------------|
--3--------2--------|--0/---------------|--5--5--5--5--5--5--5--5--|
--------------------|-------------------|--------------------------|


                                                              
-------------------|---------------------|-------------------|
-------------------|---------------------|-------------------|
--7\---------------|--3----3--------3----|--2----------------|
--0----------------|---------------------|-------------------|


                                                              
--------------------|-------------------|--------------------|
--------------------|-------------------|--------------------|
--------------------|-------------------|--3--------2--------|
--0--------2--------|--3----------------|--------------------|


                                           Stick                    
-------------------|----------------------|-------------------|
-------------------|----------------------|-------------------|
--0----------------|--0------0--0----0----|-------------------|
-------------------|----------------------|--1----------------|


                                                                 
-------------------|-------------------|------------------------|
-------------------|-------------------|------------------------|
--0----------------|--2----------------|--0--0--0---------------|
-------------------|--3----------------|-------------3--3--3----|


                                                            
-------------------|-------------------|-------------------|
-------------------|-------------------|-------------------|
-------------------|--0----------------|--2----------------|
--1----------------|-------------------|--3----------------|


                                                                 
------------------------|-------------------|-------------------|
------------------------|-------------------|-------------------|
------------------------|-------------------|--0----------------|
--1--1--1----3--3--3----|--1----------------|-------------------|


                                                                 
-------------------|------------------------|-------------------|
-------------------|------------------------|-------------------|
--2----------------|--0--0--0---------------|-------------------|
--3----------------|-------------3--3--3----|--1----------------|


                                                                 
-------------------|-------------------|------------------------|
-------------------|-------------------|------------------------|
--0----------------|--2----------------|------------------------|
-------------------|--3----------------|--1--1--1----3--3--3----|


Outro                                                              
-------------------|--------------------|--------------------|
-------------------|--------------------|--------------------|
--0/---------------|--12----------------|--10----------------|
-------------------|--------------------|--------------------|


                                                                 
----------------------|--------------------|--------------------|
----------------------|--------------------|--9-----------------|
----------12----------|--12----------------|--10----------------|
--13------12----------|--------------------|--------------------|


                     rit.                                         
--------------------|--10----------------||
--12----------------|--------------------||
--------------------|--------------------||
--------------------|--------------------||


Comments