Hammerfall - Legend Reborn Chords & Tabs

 

Legend Reborn Chords & Tabs

Hammerfall Chords & Tabs

Version: 1 Type: Tab 0 ratings
1 star 2 stars 3 stars 4 stars 5 stars
comments

Legend Reborn Tab

                                A legend reborn                                 

                                                      Oscar Dronjak, Joacim Cans
Lead
TABed by Martin Kahnberg, aka Owain ap Nghân
         kahnberg@freemail.hammerfall.net
         http://www.geocities.com/kahnberg

Double the rhy when nothing noted.

   intro                   riff 1 (play one of the two)
E||--|--|--|--|--|--|--|--|----------17------------|------------------------|
B||--|--|--|--|--|--|--|--|--17------10----17------|--18----15--17----------|
G||--|--|--|--|--|--|--|--|--9-------------9-------|--10----7---9-----------|
D||--|--|--|--|--|--|--|--|------------------------|------------------------|
A||--|--|--|--|--|--|--|--|------------------------|------------------------|
E||--|--|--|--|--|--|--|--|------------------------|------------------------|


                                                                           
------------------------|------------------------|----------17------------|
----------15------------|--------15--17----------|--17------10----17------|
--17------7-----16------|--17----7---9-----------|--9-------------9-------|
--10------------9-------|--10--------------------|------------------------|
------------------------|------------------------|------------------------|
------------------------|------------------------|------------------------|


                                                                               
----------------------------|------------------------|------------------------|
--18--20p18-----17----------|----------15------------|------------------------|
--10--12p10-19--9-----------|--17------7-----16------|--17----16--14\---------|
------------12--------------|--10------------9-------|--10----9---7\----------|
----------------------------|------------------------|------------------------|
----------------------------|------------------------|------------------------|


chorus                  verse 1                                                
--|--|--|--|--|--|--|--|---------------------------|--------------------------|
--|--|--|--|--|--|--|--|---------------------------|--------------------------|
--|--|--|--|--|--|--|--|--9------------------------|--------------------------|
--|--|--|--|--|--|--|--|--7--------------10----9\--|----7-----------10----9\--|
--|--|--|--|--|--|--|--|--0--0--0--0--0--12----10--|-------0--0--0--12----10--|
--|--|--|--|--|--|--|--|---------------------------|--------------------------|


                                                                                
-------------------------|-------------------------|---------------------------|
-------------------------|-------------------------|---------------------------|
-------------------------|--5--------0-------------|--9------------------------|
----7-----3--3--3--3--3--|--5--------2----5--5/-7--|--7--------------10----9\--|
-------0-----------------|--3--3--3--3----5--5/-7--|--0--0--0--0--0--12----10--|
-------------------------|-------------------------|---------------------------|


                                                                               
--------------------------|-------------------------|-------------------------|
--------------------------|-------------------------|-------------------------|
--------------------------|-------------------------|----------------------2--|
----7-----------10----9\--|----7-----3--3--3--3--3--|----3--2--3--5--3--2--2--|
-------0--0--0--12----10--|-------0-----------------|----------------------0--|
--------------------------|-------------------------|-------------------------|


                                                                                
--------------------------|--------------------------|-------------------------|
--------------------------|--------------------------|-------------------------|
--------------------------|--------------------------|-------------------------|
----------------10----9\--|----7-----------10----9\--|----7-----3--3--3--3--3--|
----0--0--0--0--12----10--|-------0--0--0--12----10--|-------0-----------------|
--------------------------|--------------------------|-------------------------|


                                                      
-------------------------|---------------------------|
-------------------------|---------------------------|
--5--------0-------------|---------------------------|
--5--------2----5--5/-7--|--7--------------10----9\--|
--3--3--3--3----5--5/-7--|--7--0--0--0--0--12----10--|
-------------------------|--5------------------------|


                                                                               
--------------------------|-------------------------|-------------------------|
--------------------------|-------------------------|-------------------------|
--------------------------|-------------------------|----------------------2--|
----7-----------10----9\--|----7-----3--3--3--3--3--|----3--2--3--5--3--2--0--|
-------0--0--0--12----10--|-------0-----------------|-------------------------|
--------------------------|-------------------------|-------------------------|


bridge                                                                        
-------------------------|-------------------------|-------------------------|
-------------------------|-------------------------|-------------------------|
----------------2-----2--|----------------------2--|-------------------------|
----0--0--0--0--0--0--0--|----3--2--3--5--3--2--2--|----------------------5--|
-------------------------|----------------------0--|----0--0--0--0--2--3--5--|
-------------------------|-------------------------|----------------------3--|


                                                                              
-------------------------|-------------------------|-------------------------|
-------------------------|-------------------------|-------------------------|
-------------------------|--5-------------------7--|----------------------9--|
-------------------------|--5-------------5--5--7--|----------------7--7--9--|
-------------------------|--3----3--3--3--3--3--5--|----5--5--5--5--5--5--7--|
----3--3--3--3--3--3--3--|-------------------------|----------------------0--|


                                             chorus                  
----------------------0--|------------------|--|--|--|--|--|--|--|--|
----------------------0--|------------------|--|--|--|--|--|--|--|--|
----------------9--9--9--|------------------|--|--|--|--|--|--|--|--|
----------------9--9--9--|------------------|--|--|--|--|--|--|--|--|
----7--7--7--7--7--7--7--|------------------|--|--|--|--|--|--|--|--|
----0--0--0--0--0--0--0--|------------------|--|--|--|--|--|--|--|--|


verse 2                                                
---------------------------|--------------------------|
---------------------------|--------------------------|
--9------------------------|--------------------------|
--7--------------10----9\--|----7-----------10----9\--|
--0--0--0--0--0--12----10--|-------0--0--0--12----10--|
---------------------------|--------------------------|


                                                                                
-------------------------|-------------------------|---------------------------|
-------------------------|-------------------------|---------------------------|
-------------------------|--5--------0-------------|--9------------------------|
----7-----3--3--3--3--3--|--5--------2----5--5/-7--|--7--------------10----9\--|
-------0-----------------|--3--3--3--3----5--5/-7--|--0--0--0--0--0--12----10--|
-------------------------|-------------------------|---------------------------|


                                                                               
--------------------------|-------------------------|-------------------------|
--------------------------|-------------------------|-------------------------|
--------------------------|-------------------------|----------------------2--|
----7-----------10----9\--|----7-----3--3--3--3--3--|----3--2--3--5--3--2--2--|
-------0--0--0--12----10--|-------0-----------------|----------------------0--|
--------------------------|-------------------------|-------------------------|


                                                                                
--------------------------|--------------------------|-------------------------|
--------------------------|--------------------------|-------------------------|
--------------------------|--------------------------|-------------------------|
----------------10----9\--|----7-----------10----9\--|----7-----3--3--3--3--3--|
----0--0--0--0--12----10--|-------0--0--0--12----10--|-------0-----------------|
--------------------------|--------------------------|-------------------------|


                                                      
-------------------------|---------------------------|
-------------------------|---------------------------|
--5--------0-------------|---------------------------|
--5--------2----5--5/-7--|--7--------------10----9\--|
--3--3--3--3----5--5/-7--|--7--0--0--0--0--12----10--|
-------------------------|--5------------------------|


                                                                               
--------------------------|-------------------------|-------------------------|
--------------------------|-------------------------|-------------------------|
--------------------------|-------------------------|----------------------2--|
----7-----------10----9\--|----7-----3--3--3--3--3--|----3--2--3--5--3--2--0--|
-------0--0--0--12----10--|-------0-----------------|-------------------------|
--------------------------|-------------------------|-------------------------|

[ Tab from: http://www.guitartabs.cc/tabs/h/hammerfall/legend_reborn_tab.html ]
bridge                                                                        
-------------------------|-------------------------|-------------------------|
-------------------------|-------------------------|-------------------------|
----------------2-----2--|----------------------2--|-------------------------|
----0--0--0--0--0--0--0--|----3--2--3--5--3--2--2--|----------------------5--|
-------------------------|----------------------0--|----0--0--0--0--2--3--5--|
-------------------------|-------------------------|----------------------3--|


                                                                              
-------------------------|-------------------------|-------------------------|
-------------------------|-------------------------|-------------------------|
-------------------------|--5-------------------7--|----------------------9--|
-------------------------|--5-------------5--5--7--|----------------7--7--9--|
-------------------------|--3----3--3--3--3--3--5--|----5--5--5--5--5--5--7--|
----3--3--3--3--3--3--3--|-------------------------|----------------------0--|


                                             chorus                  stick    
----------------------0--|------------------|--|--|--|--|--|--|--|--|--|--|--|
----------------------0--|------------------|--|--|--|--|--|--|--|--|--|--|--|
----------------9--9--9--|------------------|--|--|--|--|--|--|--|--|--|--|--|
----------------9--9--9--|------------------|--|--|--|--|--|--|--|--|--|--|--|
----7--7--7--7--7--7--7--|------------------|--|--|--|--|--|--|--|--|--|--|--|
----0--0--0--0--0--0--0--|------------------|--|--|--|--|--|--|--|--|--|--|--|


            solo starts          solo                 
--|--|--|--|--------------------|--------------------|
--|--|--|--|--------------------|--------------------|
--|--|--|--|--------------18----|--18----------------|
--|--|--|--|--------------------|--------------------|
--|--|--|--|--------------------|--------------------|
--|--|--|--|--------------------|--------------------|


                                                              
--------------------------------|----------------------------|
--------------------------------|----------------------------|
--18--16----16------------------|------------18p-16------16--|
---------19-----16--------16-18-|--19----------------19------|
--------------------------------|----------------------------|
--------------------------------|----------------------------|


                                                                  
------------------------------|--------------------------16--17--|
------------------------------|--------------19--19--19--21--22--|
--------------16-----16-------|----------------------------------|
----------19------19----19-18-|--19-18-16------------------------|
------------------------------|----------------------------------|
------------------------------|----------------------------------|


                                                                    
--16-17-16----16-------------------16-|--17--------21--19--17--19--|
--21-22-21-19-21-19-17r-19------19-21-|--22------------------------|
--------------------21r---------------|----------------------------|
--------------------------------------|----------------------------|
--------------------------------------|----------------------------|
--------------------------------------|----------------------------|


fast improvisation                                                               
------------------|------------------------|--------------------------------|
------------------|------------------------|--------------------------------|
------------------|----------19------18p16-|--18h19p18h19-18----------18h19-|
------------------|------------------------|--------------------------------|
------------------|------------------------|--------------------------------|
------------------|------------------------|--------------------------------|


                                                                
--------------------------------|------------------------------|
--17------17-17-17--------------|------------------------------|
--------------------19--18--16--|----------16--16-----18-16----|
--------------------------------|------------------19-------18-|
--------------------------------|------------------------------|
--------------------------------|------------------------------|


                                                                    
--------------------------------------|----------------------------|
--------------------------------------|----------------------------|
--------------18--18--18-----16-------|-------------------------18-|
--19p18-16----------------19----19p18-|--19p18-16------------16----|
--------------------------------------|----------------------------|
--------------------------------------|----------------------------|


not certain...                                                     
--------17h19p17----------------19h21p17----------|--------------------|
--19-------------19----17-19-------------19-------|--------------------|
-----18-------------18-------18-------------16----|--16----------------|
-----------------------------------------------19-|--------------------|
--------------------------------------------------|--------------------|
--------------------------------------------------|--------------------|


                                         
----------------------------------------|
----------------------------------------|
--16----16--16--16-16-16-16-16-16-16-16-|
----------------------------------------|
----------------------------------------|
----------------------------------------|


                                           add some fast improvisation here
------------------------------------------|--------------------|
------------------------------------------|--------------------|
--16-16-16-16-16-16-16-16-16-16-14--16r---|--14----------------|
------------------------------------------|--------------------|
------------------------------------------|--------------------|
------------------------------------------|--------------------|


                                                              
--------------------|----------------------------------------|
--------------------|--15----15--15--15-15-15-15-15-15-15-15-|
--------------17----|----------------------------------------|
--------------------|----------------------------------------|
--------------------|----------------------------------------|
--------------------|----------------------------------------|


                                                                    
--------------------------------------------|----------------------|
--15-15-15-15-15-15-15-15-15-15-15-15-17----|--18--------18r-------|
--------------------------------------------|----------------------|
--------------------------------------------|----------------------|
--------------------------------------------|----------------------|
--------------------------------------------|----------------------|


                     riff 1                                            
--------------------|----------17------------|------------------------|
--17----------------|--17------10----17------|--18----15--17----------|
--------------------|--9-------------9-------|--10----7---9-----------|
--------------------|------------------------|------------------------|
--------------------|------------------------|------------------------|
--------------------|------------------------|------------------------|


                                                                           
------------------------|------------------------|----------17------------|
----------15------------|--------15--17----------|--17------10----17------|
--17------7-----16------|--17----7---9-----------|--9-------------9-------|
--10------------9-------|--10--------------------|------------------------|
------------------------|------------------------|------------------------|
------------------------|------------------------|------------------------|


                                                                               
----------------------------|------------------------|------------------------|
--18--20p18-----17----------|----------15------------|------------------------|
--10--12p10-19--9-----------|--17------7-----16------|--17----16--14\---------|
------------12--------------|--10------------9-------|--10----9---7\----------|
----------------------------|------------------------|------------------------|
----------------------------|------------------------|------------------------|


chorus                  riff 1                                            
--|--|--|--|--|--|--|--|----------17------------|------------------------|
--|--|--|--|--|--|--|--|--17------10----17------|--18----15--17----------|
--|--|--|--|--|--|--|--|--9-------------9-------|--10----7---9-----------|
--|--|--|--|--|--|--|--|------------------------|------------------------|
--|--|--|--|--|--|--|--|------------------------|------------------------|
--|--|--|--|--|--|--|--|------------------------|------------------------|


                                                                           
------------------------|------------------------|----------17------------|
----------15------------|--------15--17----------|--17------10----17------|
--17------7-----16------|--17----7---9-----------|--9-------------9-------|
--10------------9-------|--10--------------------|------------------------|
------------------------|------------------------|------------------------|
------------------------|------------------------|------------------------|


                                                                               
----------------------------|------------------------|------------------------|
--18--20p18-----17----------|----------15------------|------------------------|
--10--12p10-19--9-----------|--17------7-----16------|--17----16--14\---------|
------------12--------------|--10------------9-------|--10----9---7\----------|
----------------------------|------------------------|------------------------|
----------------------------|------------------------|------------------------|


outro                            
--|--|--|--|--|--|--|--|--|--|--||
--|--|--|--|--|--|--|--|--|--|--||
--|--|--|--|--|--|--|--|--|--|--||
--|--|--|--|--|--|--|--|--|--|--||
--|--|--|--|--|--|--|--|--|--|--||
--|--|--|--|--|--|--|--|--|--|--||


Comments