Hammerfall - Legacy Of Kings Chords & Tabs

 

Legacy Of Kings Chords & Tabs

Hammerfall Chords & Tabs

Version: 1 Type: Tab 0 ratings
1 star 2 stars 3 stars 4 stars 5 stars
comments

Legacy Of Kings Tab

   
LEGACY OF KINGS
FROM LEGACY OF KINGS ALBUM
BY HAMMERFALL

TABBED BY Alejandro Viquez



NOTE: tUNE A HALF STEP DOWN TO Eb

RIFF A:
Eb|--------------------------------------------------------------------------------|
Bb|--------------------------------------------------------------------------------|
Gb|---7---------7------------------------------------------------------------------|
Db|---7---------7-----------5-5---------------------------8---------8--------------|
Ab|---5-5-5-5-5-5-5-5-5-5-5-----8-8-7-7-5-5-8-8-7-7-5-5---8---------8--------------|
Eb|-----------------------------------------------------8-6-6-6-6-6-6-6-6-6-6-6-6--|
       | P.M.. | | P.M.................................. | | P.M...| | P.M....... |

Eb|------------------------|
Bb|------------------------|
Gb|------------------------|
Db|---5-5------------------|
Ab|-------8-8-7-7-5-5-7-8--|
Eb|------------------------|
    | P.M...........|

RIFF B: 
Eb|--------------------------------------------------------------------------------|
Bb|--------------------------------------------------------------------------------|
Gb|---7---------7------------------------------------------------------------------|
Db|---7---------7-----------8-8-7-7-5-5-----7-7-5-5-------8---------8--------------|
Ab|---5-5-5-5-5-5-5-5-5-5-5-------------8-8---------8-8-7-8---------8--------------|
Eb|-------------------------------------------------------6-6-6-6-6-6-6-6-6-6-6-6--|
       | P.M.. | | P.M.................................  | | P.M...| | P.M........|

Eb|------------------------|
Bb|------------------------|
Gb|------------------------|
Db|---8-8-7-7-5-5----------|
Ab|---------------8-8-7-8--|
Eb|------------------------|
   | P.M............|

VERSE:  X 2
Eb|------------------------------------------------------------------------------|
Bb|------------------------------------------------------------------------------|
Gb|---7---------7-----------------------------------------7---------7------------|
Db|---7---------7-----------5-5---------------------------7---------7------------|
Ab|---5-5-5-5-5-5-5-5-5-5-5-----8-8-7-7-5-5-8-8-7-7-5-5---5-5-5-5-5-5-5-5-5-5-5--|
Eb|-----------------------------------------------------8------------------------|
       | P.M.. | | P.M.................................. | | P.M.. | | P.M.... |

Eb|-----------------------------------------------------------------|
Bb|-----------------------------------------------------------------|
Gb|-----------------------------------------------------------------|
Db|---8-8-7-7-5-5-----7-7-5-5--------8---------8-----------5--7--8--|
Ab|---------------8-8---------8-8-7--8---------8-----------5--7--8--|
Eb|----------------------------------6-6-6-6-6-6-6-6-6-6-6-3--5--6--|
    | P.M......................... |  | P.M.. | | P.M.... |

BRIDGE 1:  
Eb|-----------------------------------------------------------------------------------|
Bb|-----------------------------------------------------------------------------------|
Gb|-----------------------------------------------------------------------------9-7-6-|
Db|---4---------6---------7---------4---------6---------7-----------------------9-7-6-|
Ab|---2-2-2-2-2-4-4-4-4-4-5-5-5-5-5-2-2-2-2-2-4-4-4-4-4-5-5-5-5-5-5-4-2---------7-5-4-|
Eb|---------------------------------------------------------------3-2-0--0-2-5-3------|
       | P.M.. | | P.M.. | | P.M.. | | P.M.. | | P.M.. | | P.M.. | 
[ Tab from: http://www.guitartabs.cc/tabs/h/hammerfall/legacy_of_kings_tab.html ]
Eb|----------------------------------------------------------------------------------|
Bb|----------------------------------------------------------------------------------|
Gb|---------------------------------------------------------------------------9-7-6--|
Db|---4---------6---------7---------4---------6---------7-----------6-7-------9-7-6--|
Ab|---2-2-2-2-2-4-4-4-4-4-5-5-5-5-5-2-2-2-2-2-4-4-4-4-4-5-5-5-5-5-5-4-5-3-4-5-7-5-4--|
Eb|---------------------------------------------------------------3-----1-2-3--------|
       | P.M.. | | P.M.. | | P.M.. | | P.M.. | | P.M.. | | P.M.. |

CHORUS:
Eb|-------------------------------------|
Bb|-------------------------------------|
Gb|---7--5--3--5------7--5--------------|
Db|---7--5--3--5--5---7--5--3--5--7--8--|
Ab|---5--3--1--3--7---5--3--1--5--7--8--|
Eb|---------------5------------3--5--6--|

AFTER CHORUS:
RIFF B  X 1
RIFF A  X 1

VERSE:
SAME AS ABOVE

BRIDGE:
SAME AS BRIDGE 1

CHORUS:
SAME AS ABOVE  X 2

BRIDGE 2:  X 2
Eb|----------------------------------------------------------------------------------|
Bb|----------------------------------------------------------------------------------|
Gb|---9--------------------------------------------------------9---------------------|
Db|---9-------------10-----9-----7-----9----------------7------9-------------10------|
Ab|---7-7-7-7-7-7-7----7-7---7-7---7-7---7-7-7-7-7-7--7---10-9-7-7-7-7-7-7-7----7-7--|
Eb|----------------------------------------------------------------------------------|
       | P.M.......|  |P.M| |P.M| |P.M| | P.M.......|           | P.M.......|  |P.M|

Eb|----------------------------------------------------------------------------------|
Bb|----------------------------------------------------------------------------------|
Gb|--------------------------------------9-------------------------------------------|
Db|--9-----7-----9---------------------7-9-------------10-----9-----7-----9----------|
Ab|----7-7---7-7---7-7-7-7-7-7--7-9-10---7-7-7-7-7-7-7----7-7---7-7---7-7---7-7-7-7--|
Eb|----------------------------------------------------------------------------------|
      |P.M| |P.M| |P.M........|           |P.M....... |  |P.M| |P.M| |P.M| |P.M....|

Eb|---------------------------|
Bb|---------------------------|
Gb|-------------5-------------|
Db|-----7-------5---7--5-(7)--|  
Ab|---7---10-9--3---7--5-(7)--|
Eb|-----------------5--3-(5)--|

FIRST SOLO:                        SECOND:
Eb|------------------------------|---------------------------------------------------|
Bb|------------------------------|---------------------------------------------------|
Gb|------9-----7-----------7-----|-9--7--9--12--7--9--7--9--12--7--9--7--9--7--5-----|
Db|---9--9--7--7--7--9--7--7--7--|-9--7--9--12--7--9--7--9--12--7--9--7--9--7--5--7--|
Ab|---9--7--7--5--7--9--7--5--7--|-7--5--7--10--5--7--5--7--10--5--7--5--7--5--3--7--|
Eb|---7-----5-----5--7--5-----5--|------------------------------------------------5--|

Eb|---------|
Bb|---------|
Gb|---------|
Db|---5--7--|
Ab|---5--7--|
Eb|---3--5--|

CHORUS:
AS ABOVE  X 1

CHORUS AGAIN:  X 1
Eb|--------------------------------------|
Bb|--------------------------------------|
Gb|--10--8--6--8------10--8--6-----------|
Db|--10--8--6--8--10--10--8--6--8--6--8--|
Ab|---8--6--4--6--10---8--6--4--8--6--8--|
Eb|----------------8------------6--4--6--|

RIFF B:  X 1

RIFF A:  X 1

OUTRO:
Eb|----------------------------------|
Bb|----------------------------------|
Gb|---7-------5---7---7---7---7---7--|
Db|---7---8---5---7---7---7---7---7--|
Ab|---5---8---3---5---5---5---5---5--|
Eb|-------6--------------------------|
Comments