Hammerfall - Heeding The Call Chords & Tabs

 

Heeding The Call Chords & Tabs

Hammerfall Chords & Tabs

Version: 1 Type: Tab 0 ratings
1 star 2 stars 3 stars 4 stars 5 stars
comments

Heeding The Call Tab

               --------------------------------------------------
                      heeding the call by hammerfall
               --------------------------------------------------

       tabbed by:ruben celius
       e-mail:r_celius@hotmail.com


 riff 1:
e|------------------------------------------|
b|------------------------------------------|
g|------------------------------------------|
d|---------9-----9-----7-----7-----5-----7--|
a|---------7-----7-----5-----5-----3-----5--|
e|-0-0-0-0---0-0---0-0---0-0---0-0---0-0----|
   p.m....   ...   ...   ...   ...   ...

riff 2:
e|-------------------------------------------|
b|-------------------------------------------|
g|-------------------------------------------|
d|---------9-----9-----7-----7------5--------|
a|---------7-----7-----5-----5------3--------|
e|-0-0-0-0---0-0---0-0---0-0---0-0-----------|
   .......   ...   ...   ...   ...

reapet riff 1:
[ Tab from: http://www.guitartabs.cc/tabs/h/hammerfall/heeding_the_call_tab.html ]
riff 3:
e|----------------------|
b|----------------------|
g|----------------------|
d|--5--5-----7-----9----|
a|--3--3-----5-----7----|
e|-------0-0---0-0------|
         ...   ...

e|---------------------------------------------------------|
b|---------------------------------------------------------|
g|---------------------------------------------------------|
d|-----------------------------9-----9-----7-----7-----5---|
a|-----------------------------7-----7-----5-----5-----3---|
e|-0-0-0-0-0-0-0-0-0-0-0-0-0-0---0-0---0-0---0-0---0-0-----|
   ...........................   ...   ...   ...   ...


e|---------------------------------------------------|
b|---------------------------------------------------|
g|---------------------------------------------------|
d|-----------------------------5-----5-----7-----9---|
a|-----------------------------3-----3-----5-----7---|
e|-0-0-0-0-0-0-0-0-0-0-0-0-0-0---------0-0---0-0-----|
   ...........................         ...   ...
Comments