Hammerfall - Heeding The Call Chords & Tabs

 

Heeding The Call Chords & Tabs

Hammerfall Chords & Tabs

Version: 1 Type: Bass Tab 0 ratings
1 star 2 stars 3 stars 4 stars 5 stars
comments

Heeding The Call Bass Tab

This was a hard song to tab out, it's actually quite funny, I even had to use  powertab, lol.

|----------|-----------------|-----------------|------------------|
|----------|-----------------|-----------------|------------------|
|----------|-----------------|-----------------|------------------|
|----------|-5-5-5-5-5-5-5-5-|-5-5-5-5-5-5-5-5-|-5-5-5-5-5-5-5-5--|


|-----------------|-----------------|-----------------|----------------|
|-----------------|-----------------|-----------------|----------------|
|-----------------|-----------------|-----------------|----------------|
|-5-5-5-5-1-1-1-1-|-5-5-5-5-5-5-5-5-|-5-5-5-5-5-5-5-5-|-1-1----5-5-5-5-|

                     1st and 2nd Verses
|-----------------||------------------|-----------------|-----------------|
|-----------------||o-----------------|-----------------|-----------------|
|-----------------||o-----------------|-----------------|-----------------|
|-3-3-5-5-5-5-5-5-||--5-5-5-5-5-5-5-5-|-5-5-5-5-5-5-5-5-|-5-5-5-5-5-5-5-5-|


|-----------------|-----------------|-----------------|----------------|
|-----------------|-----------------|-----------------|----------------|
|-----------------|-----------------|-----------------|----------------|
|-5-5-5-5-1-1-1-1-|-5-5-5-5-5-5-5-5-|-5-5-5-5-5-5-5-5-|-1-1----5-5-5-5-|


                    Bridge
|-----------------||---------------------------|----------------------------|
|-----------------||------

---------------2-2-5-|----------------------------|
|-----------------||-3--(3)--(3)-3-3-5-5-------|---------------------3-3-5--|
|-3-3-5-5-5-5-5-5-||---------------------------|-3--(3)--(3)-3-3-5-5--------|


|---------------------------|-----------------|
|-------------------------2-|-----------------|
|-----------------2-2-3-3---|-7--(7)--7-7-7-7-|
|-5--(5)--(5)-5-5-----------|-----------------|


|-----------------|-----------------|
|-----------------|-----------------|
|-----------------|-3--(3)--3-3-3-3-|
|-1--(1)--1-1-1-1-|-----------------|


                                     Chorus
|-----------------|----------------||-----------|-----------|
|-----------------|----------------||-----------|-----------|
|-----------------|-----------3----||------3----|-----------|
|-3--(3)--3-3-3-3-|-3-3-3-3-3------||-5---------|-3----5----|


|-----------|-----------|-----------|-----------|
|-----------|-----------|-----------|-----------|
|-3---------|-3----5----|------3----|-----------|
|------3----|-----------|-5---------|-3----5----|


                             1.
|-----------|--------------||-----------------|-----------------|
|-----------|--------------||-----------------|-----------------|
|-3---------|--------------||-----------------|-----------------|
|------3----|-1----3-3-5---||-5-5-5-5-5-5-5-5-|-5-5-5-5-5-5-5-5-|


|-----------------|-----------------|-----------------|-----------------|
|-----------------|-----------------|-----------------|-----------------|
|-----------------|-----------------|-----------------|-----------------|
|-5-5-5-5-5-5-5-5-|-5-5-5-5-1-1-1-1-|-5-5-5-5-5-5-5-5-|-5-5-5-5-5-5-5-5-|


                                      2.
|----------------|------------------||-------------|------||
|----------------|-----------------o||-------------|------||
|----------------|-----------------o||-------------|------||
|-1-1----5-5-5-5-|-3-3-5-5-5-5-5-5--||-3-5---------|------||


 Interlude
|-------------------------------|-------------|------|
|-------------------------------|-------------|------|
|---7-7-3-3-5-5-2-2-3-3-----2-2-|-------------|------|
|-----------------------5-5-----|-3-5---------|------|


|-9-9-5-5-7-7-----5-5-------------|-----------|-------------------------------|
|-------------9-9-----7-7-9-9-5-5-|-7----5----|-------------------------------|
|---------------------------------|-----------|-------------------------------|
|---------------------------------|-----------|-12p8-8-8-8-8-8-8-8-8-8-8-8-8--|


|-------------------------------|
|-------------------------------|
|-5-----------------------------|
|---3-3-3-3-3-3-3-3-3-3-3-3-3-3-|


|-------------------------------|-------------------------------|
|-------------------------------|-------------------------------|
|-------------------------------|---7-7-7-7-7-7-7-7-7-7-7-7-7-7-|
|-8p5-5-5-5-5-5-5-5-5-5-5-5-5-5-|-3-----------------------------|


|---------------------------------|---------------------------------|
|---------------------------------|---------------------------------|
|-8-8-8-8-8-8-8-8-8-8-8-8-8-8-8-8-|-3-3-3-3-3-3-3-3-3-3-3-3-3-3-3-3-|
|---------------------------------|---------------------------------|


|---------------------------------|---------------------------------||
|---------------------------------|---------------------------------||
|---------------------------------|---------2-2-2-2-3-3-3-3-5-5-5-5-||
|-3-3-3-3-3-3-3-3-3-3-3-3-3-3-3-3-|-5-5-5-5-------------------------||


 1st Guitar solo
|-----------|-----------|----------------------------------|
|-----------|-----------|----------------------------------|
|-3---------|------7----|-8-8-8-8-8-8-8-8-8-8-8-8-8-8-8-8--|
|------3----|-5---------|----------------------------------|


|---------------------------------|---------------------------------|
|---------------------------------|---------------------------------|
|-3-3-3-3-3-3-3-3-3-3-3-3-3-3-3-3-|---------------------------------|
|---------------------------------|-3-3-3-3-3-3-3-3-3-3-3-3-3-3-3-3-|

[ Tab from: http://www.guitartabs.cc/tabs/h/hammerfall/heeding_the_call_btab.html ]
|-----------||---------------------------------|
|-----------||---------------------------------|
|------5----||-5-5-5-5-5-5-5-5-5-5-5-5-5-5-5-5-|
|-3---------||---------------------------------|


|-----------------------------------|
|-----------------------------------|
|-1-1-1-1-1-1-1-1-3-3-3-3-3-3-3-3---|
|-----------------------------------|


|---------------------------------|-----------|
|---------------------------------|-----------|
|-5-5-5-5-5-5-5-5-5-5-5-5-5-5-5-5-|-1----3----|
|---------------------------------|-----------|


|-----------------------------------|
|-----------------------------------|
|-8-8-8-8-8-8-8-8-8-8-8-8-8-8-8-8---|
|-----------------------------------|


|---------------------------------|
|---------------------------------|
|-4-4-4-4-4-4-4-4-6-6-6-6-6-6-6-6-|
|---------------------------------|


|---------------------------------|-----------|
|---------------------------------|-----------|
|-8-8-8-8-8-8-8-8-8-8-8-8-8-8-8-8-|-4----6----|
|---------------------------------|-----------|


|---------------------------------|
|-6-6-6-6-6-6-6-6-6-6-6-6-6-6-6-6-|
|---------------------------------|
|---------------------------------|


|---------------------------------|---------------------------------|
|-2-2-2-2-2-2-2-2-4-4-4-4-4-4-4-4-|-6-6-6-6-6-6-6-6-6-6-6-6-6-6-6-6-|
|---------------------------------|---------------------------------|
|---------------------------------|---------------------------------|


|-----------|---------------------------------|
|-2----4----|---------------------------------|
|-----------|---------------------------------|
|-----------|-7-7-7-7-7-7-7-7-7-7-7-7-7-7-7-7-|


|-----------------------------------|
|-----------------------------------|
|-----------------------------------|
|-3-3-3-3-3-3-3-3-5-5-5-5-5-5-5-5---|


|---------------------------------|-----------|-------------------------------|
|---------------------------------|-----------|-------------------------------|
|---------------------------------|-----------|-------------------------------|
|-7-7-7-7-7-7-7-7-7-7-7-7-7-7-7-7-|-3----5----|-12p8-8-8-8-8-8-8-8-8-8-8-8-8--|


|-------------------------------|
|-------------------------------|
|-5-----------------------------|
|---3-3-3-3-3-3-3-3-3-3-3-3-3-3-|


|-------------------------------|-------------------------------|
|-------------------------------|-------------------------------|
|-------------------------------|---7-7-7-7-7-7-7-7-7-7-7-7-7-7-|
|-8p5-5-5-5-5-5-5-5-5-5-5-5-5-5-|-3-----------------------------|


|---------------------------------|---------------------------------|
|---------------------------------|---------------------------------|
|-8-8-8-8-8-8-8-8-8-8-8-8-8-8-8-8-|-3-3-3-3-3-3-3-3-3-3-3-3-3-3-3-3-|
|---------------------------------|---------------------------------|


|---------------------------------|---------------------------------|
|---------------------------------|---------------------------------|
|---------------------------------|---------2-2-2-2-3-3-3-3-5-5-5-5-|
|-3-3-3-3-3-3-3-3-3-3-3-3-3-3-3-3-|-5-5-5-5-------------------------|


                                                2nd Guitar solo
|---------------------------------|-----------||-------------------------------|
|---------5-5-5-5-5-5-5-5-4-4-4-4-|-5---------||-------------------------------|
|-7-7-7-7-------------------------|------5----||-5-5-5-5-5-5-5-5-5-5-5-5-5-5-5-|
|---------------------------------|-----------||-------------------------------|


|---------------------------------|----------|-----------|
|---------------------------------|----------|-----------|
|-1-1-1-1-1-1-1-1-3-3-3-3-3-3-3-3-|----------|------3----|
|---------------------------------|-5--------|-3---------|


|---------------------------------|---------------------------------|------|
|---------------------------------|---------------------------------|------|
|-5-5-5-5-5-5-5-5-5-5-5-5-5-5-5-5-|-1-1-1-1-1-1-1-1-3-3-3-3-3-3-3-3-|-1----|
|---------------------------------|---------------------------------|------|


                Chorus
|------------||------------|-----------|-----------|
|------------||o-----------|-----------|-----------|
|------3-----||o------3----|-----------|-3---------|
|-3-------5--||--5---------|-3----5----|------3----|


|-----------|-----------|-----------|-----------|
|-----------|-----------|-----------|-----------|
|-3----5----|------3----|-----------|-3---------|
|-----------|-5---------|-3----5----|------3----|


                  Outro
|---------------||-------------------------------|
|--------------o||-------------------------------|
|--------------o||-------------------------------|
|-1----3-3-5----||-3-5-5-5-5-5-5-5-5-5-5-5-5-5-5-|


|---------------------------------|
|---------------------------------|
|---------------------------------|
|-5-5-5-5-5-5-5-5-5-5-5-5-5-5-5-5-|


|-9-9---------------------------------------|---------------------------------|
|-----10-10-12-12-9-9-10-10-------9-9-------|---------------------------------|
|---------------------------12-12-----10-10-|---------------------------------|
|-------------------------------------------|-5-5-5-5-5-5-5-5-5-5-5-5-5-5-5-5-|


|---------------------------------|-9-9------------------------------------|
|---------------------------------|-----10-10-12-12-9-9-10-10-------9-9----|
|---------------------------------|---------------------------12-12-----10-|
|-5-5-5-5-5-5-5-5-5-5-5-5-5-5-5-5-|----------------------------------------|


|-------------------*|
|-------------------*|
|-------------------*|
|-5-5-5-5-3-3--5----*|
Comments