Hammerfall - Hearts On Fire Chords & Tabs

 

Hearts On Fire Chords & Tabs

Hammerfall Chords & Tabs

Version: 1 Type: Tab 0 ratings
1 star 2 stars 3 stars 4 stars 5 stars
comments

Hearts On Fire Tab

   
Band: Hammerfall
Song: Hearts on fire
Album: Grimson thunder
Tabbed by: aqp_87 (Finland)

Gtr I (E A D G B E)
Gtr II (E A D G B E)

 Intro riff
|---------------------------------------------------------------|
|---------------------------------------------------------------|
|---------------------------------------------------------------|Gtr I
|-------4------------------------------4-------------------2----|
|---------------4-------5---2--4---------------4-------5------4-|
|---2-2---2-2-2---2-2-2---2--------2-2---2-2-2---2-2-2---2------|
|
|
|-------------------------------------------------------------|
|-------------------------------------------------------------|
|-------------------------------------------------------------|Gtr II
|-4-4---------------------------------------------------------|
|-4-4---------------------------------------------------------|
|-2-2---------------------------------------------------------|



|-----------------------------|------------------------------|
|-----------------------------|------------------------------|
|-----------------------------|------------------------------|Gtr I
|-------4---------------------|--6-----6-----6-6-6-4---------|
|---------------4-------5---2-|--4-4-4-4-4-4-4-4-4-2---------|
|---2-2---2-2-2---2-2-2---2---|----------------------5--4----|
|
|
|-----------------------------|-------------------------------|
|-----------------------------|-------------------------------|
|-----------------------------|-6-----------------------------|Gtr II
|-4-4-------------------------|-6-----------------------------|
|-4-4-------------------------|-4-----------------------------|
|-2-2-------------------------|-------------------------------|



|-----------------------|--------------|------------------------------|
|-----------------------|--------------|------------------------------|
|-----------------------|--------------|------------------------------|Gtr I
|-------4---------------|--------------|-----4-------------------2----|
|---------------4-------|-5----2--4----|-------------4-------5------4-|
|---2-2---2-2-2---2-2-2-|----2---------|-2-2---2-2-2---2-2-2---2------|
|
|
|-----------------------|--------------|---------------------------|
|-----------------------|--------------|---------------------------|
|-----------------------|--------------|---------------------------|Gtr II
|-4-4-------------------|--------------|---------------------------|
|-4-4-------------------|-17----14-16--|---------------------------|
|-2-2-------------------|--------------|---------------------------|



|-----------------------------|------------------------------|
|-----------------------------|------------------------------|
|-----------------------------|------------------------------|Gtr I
|-------4---------------------|--6-----6-----6-6-6-4---------|
|---------------4-------5---2-|--4-4-4-4-4-4-4-4-4-2---------|
|---2-2---2-2-2---2-2-2---2---|----------------------5--4----|
|
|
|-----------------------------|------------------------------|
|-----------------------------|------------------------------|
|-----------------------------|-6----------------------------|Gtr II
|-4-4-------------------------|-6----------------------------|
|-4-4-------------------------|-4----------------------------|
|-2-2-------------------------|------------------------------|




 Verse riff
|-----------|------------|-----------|-----------|
|-----------|------------|-----------|-----------|
|-----------|------------|-----------|-----6-----|Gtr I & II
|----4------|-----4------|----4------|-----6-----|
|----4------|-----4------|----4------|-----4-----|
|----2------|-----2------|----2------|-----------|



|---------------------|-------------|----------------------------|
|---------------------|-------------|----------------------------|
|---------------------|-------------|----------------------------|Gtr I
|-4-------------------|-------------|-----------------------4----|
|-4-------------------|-5----2--4---|-----------------------4----|
|-2-2-2-2-2-2-2-2-2-2-|----2--------|-2-2-2-2-2-2-2-2-2-2-2-2----|
|
|
|---------------------|-------------|----------------------------|
|---------------------|-------------|----------------------------|
|---------------------|-------------|----------------------------|Gtr II
|-4-------------------|-------------|-----------------------4----|
|-4-------------------|-17----14-16-|-----------------------4----|
|-2-------------------|-------------|-----------------------2----|


[ Tab from: http://www.guitartabs.cc/tabs/h/hammerfall/hearts_on_fire_tab.html ]
|-------------------------------------------------------|
|-------------------------------------------------------|
|-------------------------------------------------------|Gtr I
|-------------------4---6-----6-----6-6-6-4-------------|
|-------------------4---4-4-4-4-4-4-4-4-4-2-------------|
|-2-2-2-2-2-2-2-2-2-2-----------------------5--4--------|
|
|
|-------------------------------------------------------|
|-------------------------------------------------------|
|-----------------------6-------------------------------|Gtr II
|-------------------4---6-------------------------------|
|-------------------4---4-------------------------------|
|-------------------2-----------------------------------|



|-------------------------------------------------------|
|-------------------------------------------------------|
|-------------------------------------------------------|Gtr I & II
|---------------------4--3------------------------4--3--|
|--6-----6-6-----6-6--2--1----2-----2-2-----2-----2--1--|
|--4-4-4-4-4-4-4-4-4----------0-0-0-0-0-0-0-0-0-0-------|



|-------------------------------------------------------|
|-------------------------------------------------------|
|-------------------------------------------------------|Gtr I & II
|---------------------4---3---------------------6-------|
|--6-----6-6-----6-6--2---1-------2--------5\4--4-------|
|--4-4-4-4-4-4-4-4-4--------------0-0-0-0--3\2----------|


 
 Chorus
|----------------------------------------------|
|----------------------------------------------|
|----------------------------------------------|Gtr I & II
|-4-----4-----4-4-----4-----7-----2------------|
|-4-----4-----4-4-----4-----7-----2------------|
|-2-2-2-2-2-2-2-2-2-2-2-2---5-----0------------|


|----------------------------------------------|
|----------------------------------------------|
|----------------------------------------------|Gtr I & II
|-4-----4-----4-4-----4-----7-----9------------|
|-4-----4-----4-4-----4-----7-----9------------|
|-2-2-2-2-2-2-2-2-2-2-2-2---5-----7------------|


|----------------------------------------------|
|----------------------------------------------|
|----------------------------------------------|Gtr I & II
|-4-----4-----4-4-----4-----7-----2------------|
|-4-----4-----4-4-----4-----7-----2------------|
|-2-2-2-2-2-2-2-2-2-2-2-2---5-----0------------|


|--------------------------------|
|--------------------------------|
|--------------------------------|Gtr I & II
|--7--------9--------------------|
|--7--------9--------------------|
|--5--------7--------------------|



Repeat Intro riff




Repeat Verse riff




 
 Solo (rhytm)
|----------------------------------------|
|----------------------------------------|
|----------------------------------------|
|-6---6-4/9\6-6-6-2---2---4---4----------|
|-4-4-4-2/7\4-4-4-0-0-0-0-2-2-2-2--------|
|----------------------------------------|


|----------------------------------------|
|----------------------------------------|
|----------------------------------------|
|-6---6-4/9\6-6-6-2---4------------------|
|-4-4-4-2/7\4-4-4-0-0-2-2-2---4----------|
|-------------------------0-0-2-2--------|


|----------------------------------------|
|----------------------------------------|
|----------------------------------------|
|-6---6-4/9\6-6-6-2---2---4---4----------|
|-4-4-4-2/7\4-4-4-0-0-0-0-2-2-2-2--------|
|----------------------------------------|


|----------------------------------------|
|----------------------------------------|
|----------------------------------------|
|-6---6-4/9\6-6-6-2---4------------------|
|-4-4-4-2/7\4-4-4-0-0-2-2-2---4----------|
|-------------------------0-0-2-2--------|


|-------------------------------------------------------|
|-------------------------------------------------------|
|-------------------------------------------------------|
|---------------------4--3------------------------4--3--|
|--6-----6-6-----6-6--2--1----2-----2-2-----2-----2--1--|
|--4-4-4-4-4-4-4-4-4----------0-0-0-0-0-0-0-0-0-0-------|



|-----------------------------------------------------|
|-----------------------------------------------------|
|-----------------------------------------------------|
|---------------------4---3----------------------6----|
|--6-----6-6-----6-6--2---1-------2--------5\4---4----|
|--4-4-4-4-4-4-4-4-4--------------0-0-0-0--3\2--------|

 
  Slow part

 "Hearts on fire"
 "Hearts on fire"
 "Hearts on fire"....



 Repeat Chorus




 End riff
|----------------|----------------|-------|--------------|
|----------------|----------------|-------|--------------|
|----------------|----------------|-------|--------------|Gtr I
|----------------|-----------2----|-------|--------------|
|-------5---2--4-|-------5------4-|-------|--5---2--4----|
|---2-2---2------|---2-2---2------|---2-2-|--------------|
|
|
|---------------|-----------------|-------|--------------|
|---------------|-----------------|-------|--------------|
|---------------|-----------------|-------|--------------|Gtr II
|-4-4-----------|-4-4-------------|-4-4---|--------------|
|-4-4-----------|-4-4-------------|-4-4---|-17----14-16--|
|-2-2-----------|-2-2-------------|-2-2---|--------------|
Comments