Hammerfall - Hearts On Fire Chords & Tabs

 

Hearts On Fire Chords & Tabs

Hammerfall Chords & Tabs

Version: 1 Type: Bass Tab 0 ratings
1 star 2 stars 3 stars 4 stars 5 stars
comments

Hearts On Fire Bass Tab

   
Hammrefall
Crimson Thunder
Hearts On Fire
Transcription by
David Serrano From Chile

INTRO A				 INTRO B
G||------------------------|	|----------------------------|
D||------------------------|	|----------------------------|
A||-------------------5-5--|X 1	|-----------------------5-5--|X 1
E||--3--3-----3--3---------|	|--3--3----3-3----3-3--------|

VERSE                                                                           
G|-------------------------------|---------------------------|----------------------|
D|-------------------------------|---------------------------|----------------------|
A|---------------------------5-5-|-------------------6-3-5---|-----------------55---|
E|--3--3----3--3----3-3--3-------|--33-33333333333-----------|--33-33333333333------|

                                 END VERSE                                    
G|------------------------------------------|
D|------------------------------------------|
A|---------------5-5-55-5-55-5-5-5-5-6/8----|
E|--33333333333-----------------------------|

PRE-CHORUS A                                                                          
G|------------------------------|----------------------------------|
D|------------------------------|----------------------------------|
A|-------------------------3p2p0|-------------------------3p2p0----|
E|--5-5-5-5-5-5-5-5-5-5-5-------|--1-1-1-1-1-1-1-1-1-1-1-----------|
                                                                           
G|------------------------------|--------------------|
D|------------------------------|--------------------|
A|-------------------------3p2p0|----------------5---|
E|--5-5-5-5-5-5-5-5-5-5-5-------|--1-1-1-1-h-3/5-----|

CHORUS
G|-----------------------------|-----------------------------------|
D|-----------------------------|-----------------------------------|
A|-----------------------------|----------------5-5-5-5-5-5-5-5----|
E|--7-7-7-7-7-7-7-7-7-7-7-7-7--|--3-3-3-3-3-3-3--------------------|

G|-----------------------------|-----------------------------------|
D|-----------------------------|-----------------------------------|
A|-----------------------------|--3-3-3-3-3-3-3-5-5-5-5-5-5-5-5----|
E|--7-7-7-7-7-7-7-7-7-7-7-7-7--|-----------------------------------|
[ Tab from: http://www.guitartabs.cc/tabs/h/hammerfall/hearts_on_fire_btab.html ]
G|-----------------------------|-------------------------------------------------|
D|-----------------------------|-------------------------------------------------|
A|-----------------------------|----------------5-5-5-5-5-5-5-5-3-3-3-3-3-3-3-2--|
E|--7-7-7-7-7-7-7-7-7-7-7-7-7--|--3-3-3-3-3-3-3----------------------------------|
 
RIFF 1
G|---------------------------|------------------------|
D|---------5-----------------|-----5---------------3--|
A|---------------5-----6-3-5-|-----------5------6-----|
E|--3-3-33---333---333-------|-333---333---333--------|                                                     
                                                          
G|--------------------------|---------------------------|
D|---------5----------------|---------------------------|
A|---------------5-----6-3--|-5-5-55-5-55-5-5-5-5-6/8---|
E|--3-3-33---333---333------|---------------------------|
 
VERSE X 1
PRE-CHORUS A X 1
CHORUS X 1
                                                                          
SOLO GUITAR
G|--------------------------|--------------------------|
D|--------------------------|--------------------------|
A|-5-5-55-5-55-5-5-55-5-55--|-1-1-11-1-11-3-3-33-3-----|
E|--------------------------|--------------------------|

G|--------------------------|-----------|
D|--------------------------|-----------|
A|-5-5-55-5-55-5-5-55-5-55--|-1-3-------|  Play solo 2 times
E|--------------------------|-----3-1---|

SOLO RYTHM GUITAR
G|-------------------------|--------------------------|
D|-------------------------|--------------------------|
A|-------------------------|--------------------------| X 2
E|--5-5-5-5-5-5-5-5-5-5-5--|--1-1-1-1-1-1-1-1-1-1-1/5-| 
                                                               
BASS SOLO
G|-------------------------|-------------------------|-------------------------|-------------------------|
D|-------------------------|-------------------------|-------------------------|-------------------------|
A|--7-7-7-7-7-7-7-7-7-7-7--|--5-5-5-5-5-5-5-5-5-5-5--|--5-5-5-5-5-5-5-5-5-5-5--|--3-3-3-3-3-3-3-3-3-3-3--|
E|-------------------------|-------------------------|-------------------------|-------------------------|

PRE-CHORUS B
G|----------------------------|
D|----------------------------|
A|-----------3-3-3-3-3-3-3-2--|
E|--7-7-7-7-------------------|

cHORUS X 1

OUTRO
G|----------------------|
D|----------------------|
A|------------------1-3-|
E|--3-3---3-3--3-3------|

Any correction emailme blood_wolf_666@hotmail.com ^-^
I hope you like my version
Comments