Hammerfall - Dreamland Chords & Tabs

 

Dreamland Chords & Tabs

Hammerfall Chords & Tabs

Version: 1 Type: Tab 0 ratings
1 star 2 stars 3 stars 4 stars 5 stars
comments

Dreamland Tab

DREAMLAND
FROM LEGACY OF KINGS ALBUM
BY HAMMERFALL

TABBED BY ANDREAS ÖHRN

NOTE:TUNE A HALF STEP DOWN TO Eb

INTRO:
E|-----------------------------------------------------------------------------------|
B|-----------------------------------------------------------------------------------|
G|-(-2-4-5-7-)-----------------------------------------------------------------------|
D|-(-2-4-5-7-)-10---------9-------------10-9-7----9-7------7-------------------------|
A|-(-0-2-3-5-)----7-7-7-7---7-7-7-7-7-7--------10-----10-9---10-9-7--6---6-7---6-7-9-|
E|---------------------------------------------------------------------7-----8-------|
                  | P.M.. | | P.M...... |         | P.M............ |          

E|------------------------------------------------------------------------------------|
B|------------------------------------------------------------------------------------|
G|------------------------------------------------------------------------------------|
D|--10---------9-------------10-9-7----9-7------7---------------------------------7-7-|
A|-----7-7-7-7---7-7-7-7-7-7--------10-----10-9---10-9-7--6---6-7---7-10-10-10-10-----|
E|----------------------------------------------------------7-----8-------------------|
      | P.M.. | | P.M...... |         | P.M............ |            | P.M...........

E|---------------------------------------------|
B|---------------------------------------------|
G|--------------7-7-7-7------------------------|
D|--7-7-9-9-9-9--------------------------------|  ( REPEAT ALL ACCEPT THIS )
A|----------------------10-10-10-10-9-9-9-9----|
E|---------------------------------------------|
  ......................................... |

VERSE:
E|----------------------------------------------------------------------------------|
B|----------------------------------------------------------------------------------|
G|---9------7-7--------9------7-7--5--7---------------------------------------------|
D|---9--7-9---7--5-8-7-9--7-9---7--5--7--------------------------------------10-----|
A|---7--------5--------7--------5--3--5--10-10-10-13-10-10-10-13-10-10-10-13----13--|
E|----------------------------------------------------------------------------------| 
      | P.M. | | P.M. | | P.M. |        | P.M.....................................

E|----------------------------------------------------------------------------------|
B|----------------------------------------------------------------------------------|
G|----------------------------------------------------------------------------------|
D|------------------------------------12-10-8---------------------------------------|
A|---12-10-8-8-8-11-8-8-8-11-8-8-8-11---------12-10-10-10-13-10-10-10-13-10-10-10-13|
E|----------------------------------------------------------------------------------|
    ................................................................................

E|---------------------------------------------------|
B|---------------------------------------------------|
G|---------------------------------------------------|
D|---10-------------------------------------------7--|
A|------13-12-10-8-8-8-8-8-8-8-8----7-9-10-7-9-10----|
E|-------------------------------10------------------|
   ............................................... |

BRIDGE 1:
E|----------------------------------------------------------------------------------|
B|----------------------------------------------------------------------------------|
G|---5---3-3---------9-----------------------7-----------------------------------5--|
D|---5-------6-6-5-5-9---10-10-9-9-7-7-------7-------------------5-7---5---------5--|
A|---3-3-------------7-7---------------10-10-5-5-----5-5-7-7-8-8-----8---7-8-5-7-3-3|
E|-----------------------------------------------8-8--------------------------------|
      | P.M........ | | P.M................ | | P.M............................ | |
                                                
E|-----------------------------------------------------------------------------12---|
B|----------------------------------------------------------------------------------|
G|---3-3---------9-----------------------7-----------------------------------5------|
D|-------6-6-5-5-9---10-10-9-9-7-7-------7-------------------5-7---5---------5------|
A|---------------7-7---------------10-10-5-5-----5-5-7-7-8-8-----8---7-8-5-7-3------|
E|-------------------------------------------8-8------------------------------------|
   P.M......... | | P.M................ | | P.M............................ |

E|---12^----------------|
B|-------15-13-12-------|
G|----------------14----|
D|----------------------|
A|----------------------|
E|----------------------|

CHORUS:   
GUITAR 1:
E|---------------------------------------------------------------------------------|
B|---------------------------------------------------------------------------------|
G|------7--5--------9--5--7------7--5--------9--5--7--9-7-9--5--7--4------------7--|
D|---5--7--5--5--7--9--5--7---5--7--5--5--7--9--5--7--9-7-9--5--7--4--7--9--10--7--|
A|---5--5--3--5--7--7--3--5---5--5--3--5--7--7--3--5--7-5-7--3--5--2--7--9--10--5--|
E|---3--------3--5------------3--------3--5---------------------------5--7---8-----|

GUITAR 2:
E|---------------------------------------------------------------------------------|
B|------------7------5-------------------------------------------7------5----------|
G|-------7--9---5--5-------------7-9-----9-7--9-11-12--11-9-7--9---5--7------------|
D|---5-7---------------5--7-9-10------10----------------------------------5--7-9-10|
A|---------------------------------------------------------------------------------|
E|---------------------------------------------------------------------------------|

E|-----------------------------------------|
B|-----------------------------------------|
G|---7-9--5-5-7--9-7-9--5-5-7-----------7--|
D|----------------------------9--7-9-10----|
A|-----------------------------------------|
E|-----------------------------------------|

AFTER CHORUS:
E|--------------------------------------------------------------------------------|
B|--------------------------------------------------------------------------------|
G|--------------------------------------------------------------------------------|
D|---10---------9-------------10-9-7----9-7------7--------------------------10----|
A|------7-7-7-7---7-7-7-7-7-7--------10-----10-9---10-9-7--6---6-7---6-7-9-----7--|
E|-----------------------------------------------------------7-----8--------------|
       | P.M.. | | P.M...... |         | P.M............ |                    | P.M 
[ Tab from: http://www.guitartabs.cc/tabs/h/hammerfall/dreamland_tab.html ]
E|--------------------------------------------------------------------------------|
B|--------------------------------------------------------------------------------|
G|--------------------------------------------------------------------------------|
D|---------9-------------10-9-7----9-7------7---------------------------------7-7-|
A|---7-7-7---7-7-7-7-7-7--------10-----10-9---10-9-7--6---6-7---7-10-10-10-10-----|
E|------------------------------------------------------7-----8-------------------|
    ..... | | P.M...... |         | P.M............ |            | P.M............

E|--------------------------------------------|
B|--------------------------------------------|
G|---------------7-7-7-7----------------------|
D|---7-7-9-9-9-9------------------------------|
A|-----------------------10-10-10-10-9-9-9-9--|
E|--------------------------------------------|
    ........................................ |

VERSE:
SAME AS ABOVE

BRIDGE:
SAME AS BRIDGE 1

CHORUS:
SAME AS ABOVE

BRIDGE 2:  
E|---------------------------------------------------------------------------------|
B|---------------------------------------------------------------------------------|
G|---------------------------------------------------------------------------------|
D|-9-7-9----7----------9-7-9----7----------10-9-10-7-9----7------10-9-10-7-9----7-9|
A|-------10---9-10-9-7-------10---9-10-9-7-------------10---9-10-------------10----|
E|---------------------------------------------------------------------------------|
PLAY THE PART ABOVE TWICE

E|-------------------------------------------------------------------------------|
B|-------------------------------------------------------------------------------|
G|---9-----------------------9---------------------------------------------------|
D|---9---------------------9-9---------------------9-10---------------------9-7--|
A|---7-7-7-7--7-7-7--7-7-7-9-7-7-7-7--7-7-7--7-7-7-9-10---------------------9-7--|
E|-------------------------7-----------------------7--8-8-8-8--8-8-8--8-8-8-7-5--|
      | P.M.............. |   | P.M.............. |    | P.M.............. |

E|-------------------------------------------------------------------------------|
B|-------------------------------------------------------------------------------|
G|-------------------------9-----------------------9-----------------------------|
D|-----------------------9-9---------------------9-9---------------------9-10----|
A|-----------------------9-7-7-7-7--7-7-7--7-7-7-9-7-7-7-7--7-7-7--7-7-7-9-10----|
E|---5-5-5--5-5-5--5-5-5-7-----------------------7-----------------------7--8-8--|
    | P.M.............. |   | P.M.............. |   | P.M.............. |    | P.M

E|----------------------------------------------------------|
B|----------------------------------------------------------|
G|-------------------------------------------------------9--|
D|---------------------9---------------------------------9--|
A|---------------------9-------------------------5-5-5-5-7--|
E|---8-8--8-8-8--8-8-8-7-5-5-5-5-7-7-7-7-8-8-8-8------------|
    ................. | | P.M.......................... |

E|------------------------------------------------------------------------------|
B|------------------------------------------------------------------------------|
G|------------------------------------------------------------------------------|
D|---9-7-9----7----------9-7-9----7----------10-9-10-7-9----7------10-9-10-7-9--|
A|---------10---9-10-9-7-------10---9-10-9-7-------------10---9-10--------------|
E|------------------------------------------------------------------------------|

E|------------------------------------------------------------------------------|
B|------------------------------------------------------------------------------|
G|------------------------------------------------------------------------------|
D|------7-9--9-7-9----7----------9-7-9----7----------10-9-10-7-9----7-7-7-7-9-9-|
A|---10------------10---9-10-9-7-------10---9-10-9-7-------------10-------------|
E|------------------------------------------------------------------------------|
                                                                   | P.M........

E|------------------------------|
B|------------------------------|
D|-------------------7-7-7-7----|
G|---9-9-10-10-10-10------------|
A|------------------------------|
E|------------------------------|
    ........................ |

SOLO:
E|------------------------------------------------------------------------------|
B|------------------------------------------------------------------------------|
G|---7--------7-----------5--7--------------------------------------------------|
D|---7--8--5--7--8--5-7-8-5--7--------------------------------------------------|
A|---5--8--5--5--8--5-7-8-3--5-5-5-5-5-5-5-5-5-5-5-5-5-5-5-5-5-5-5-5-5-5-5-5-5-5|
E|------6--3-----6--3-5-6-------------------------------------------------------|
                              | P.M.............................................

E|------------------------------------------------------------------------------|
B|------------------------------------------------------------------------------|
G|------------------------------------------------------------------------------|
D|---------------8---------------------------------5----------------------------|
A|-5-5-5-5-5-5-5-8---------------------------------5----------------------------|
E|---------------6-6-6-6-6-6-6-6-6-6-6-6-6-6-6-6-6-3-3-3-3-3-3-3-3-3-3-3-3-3-3--|
  ............. | | P.M.......................... | | P.M......................

E|------------------------------------------------------------------------------|
B|------------------------------------------------------------------------------|
G|-------------------------------------------------------------------------5----|
D|-------7-----------------------------------------------------------------5----|
A|-------7-----------------------------------------------------------------3-3-3|
E|-3-3-3-5-5-5-5-5-5-5-5-5-5-5-5-5-5-5-5-5-5-5-5-5-5-5-5-5-5-5-5-5-5-5-5-5------|
  ..... | | P.M.......................................................... | | P.M

E|------------------------------------------|
B|------------------------------------------|
G|------------------------------2--4--5--7--|
D|------------------------------2--4--5--7--|
A|-3-3-3-3-3-3-3-3-3-3-3-3-3-3--0--2--3--5--|
E|------------------------------------------|
   .......................... |

BRIDGE:
SAME AS BRIDGE 1

CHORUS:
( GUITAR 2 PLAYS SAME AS CHORUS ABOVE )
E|--------------------------------------------------------------------------------|
B|--------------------------------------------------------------------------------|
G|------7--5--------9--5--7-----7--5--------9--5--7--9-7-9--5--7--4------------7--|
D|---5--7--5--5--7--9--5--7--5--7--5--5--7--9--5--7--9-7-9--5--7--4--7--9--10--7--|
A|---5--5--3--5--7--7--3--5--5--5--3--5--7--7--3--5--7-5-7--3--5--2--7--9--10--5--|
E|---3--------3--5-----------3--------3--5---------------------------5--7---8-----|

E|------------------------|
B|------------------------|
G|---9--7-----------------|
D|---9--7-----------------|
A|---7--5--------5---7----|
E|---------5-7-8---8------|
Comments