Hammerfall - Destined For Glory Chords & Tabs

 

Destined For Glory Chords & Tabs

Hammerfall Chords & Tabs

Version: 1 Type: Bass Tab 0 ratings
1 star 2 stars 3 stars 4 stars 5 stars
comments

Destined For Glory Bass Tab

                                                  Destined for glory                                                    


                                                                                             Oscar Dronjak + Joacim Cans
Bass guitar
TABed by Martin Kahnberg (aka Owain ap Nghân) (kahnberg@freemail.hammerfall.net)



    Intro (Bass arrangement for Keyboard)                                                                                 
F#||-------------------|-------------------|-------------------|-------------------|-------------------|
C#||-------------------|-------------------|-------------------|-------------------|-------------------|
G#||--7----------------|-------------------|-------------------|-------------------|--7----------------|
D#||-------------------|--8----------------|--5----------------|--7----------------|-------------------|


                                                            (bass)                                                      
-------------------|-------------------|-------------------|-----------------------------|-----------------------------|
-------------------|-------------------|-------------------|-----------------------------|-----------------------------|
-------------------|--5----------------|--7----------------|-----------------------------|--3--3-3-3--3--3-3-3--3--3-3-|
--8----------------|-------------------|-------------------|--0--0-0-0--0--0-0-0--0--0-0-|-----------------------------|


                                                                                                                        
-----------------------------|-----------------------------|-----------------------------|-----------------------------|
-----------------------------|-----------------------------|-----------------------------|-----------------------------|
-----------------------------|--2--2-2-2--3--2-2-2--2--2-2-|-----------------------------|--3--3-3-3--3--3-3-3--3--3-3-|
--5--5-5-5--5--5-5-5--5--5-5-|-----------------------------|--0--0-0-0--0--0-0-0--0--0-0-|-----------------------------|


                                                  Riff 1                                                     
-----------------------------|-------------------|-----------------------------|----------------------------|
-----------------------------|-------------------|-----------------------------|----------------------------|
--5--5-5-5--5--5-5-5--5--5-5-|--7----------------|-----------------------------|----------------------------|
-----------------------------|--0----------------|--0--0-0-0--0--0-0-0--0--0-0-|--0--0-0-0--0--0-0-0--2--3--|


                                                  Verse 1                                                    
----------------------------|--------------------|-----------------------------|----------------------------|
----------------------------|--------------------|-----------------------------|----------------------------|
----------------------------|-----------5--------|-----------------------------|----------------------------|
--0--0-0-0--0--0-0-0--0--2--|--3-----------------|--0--0-0-0--0--0-0-0--0--0-0-|--0--0-0-0--0--0-0-0--2--3--|


                                                                                                                 
----------------------------|------------------------|-----------------------------|----------------------------|
----------------------------|------------------------|-----------------------------|----------------------------|
--0--0-0-0--0--0-0-0--2--3--|--2--2-2-2--0-----------|-----------------------------|----------------------------|
----------------------------|-------------------3----|--0--0-0-0--0--0-0-0--0--0-0-|--0--0-0-0--0--0-0-0--2--3--|


                                                                                                                 
----------------------------|------------------------|-----------------------------|----------------------------|
----------------------------|------------------------|-----------------------------|----------------------------|
--0--0-0-0--0--0-0-0--2--3--|--2--2-2-2--3------5----|-----------------------------|----------------------------|
----------------------------|------------------------|--0--0-0-0--0--0-0-0--0--0-0-|--0--0-0-0--0--0-0-0--2--3--|


                                                                                                                 
----------------------------|------------------------|-----------------------------|----------------------------|
----------------------------|------------------------|-----------------------------|----------------------------|
--0--0-0-0--0--0-0-0--2--3--|--2--2-2-2--0-----------|-----------------------------|----------------------------|
----------------------------|-------------------3----|--0--0-0-0--0--0-0-0--0--0-0-|--0--0-0-0--0--0-0-0--2--3--|


                                                      Bridge                                            
----------------------------|------------------------|----------------------|--------------------------|
----------------------------|------------------------|----------------------|--------------------------|
--0--0-0-0--0--0-0-0--2--3--|--2--2-2-2--3------5----|--3----3----3----3----|--3--3--3--3--3--3--3--2--|
----------------------------|------------------------|----------------------|--------------------------|


                                                                                                              
-----------------------------|-----------------------------|----------------------|--------------------------|
-----------------------------|-----------------------------|----------------------|--------------------------|
-----------------------------|-----------------------------|--5----5----5----5----|--5--5--5--5--5--5--5--5--|
--0--0-0-0--0--0-0-0--0--0-0-|--0--0-0-0--0--0-0-0--0--0-0-|----------------------|--------------------------|


                                                 Chorus                                          
--------------------------|---------------------|-----------------------|-----------------------|
--------------------------|---------------------|-----------------------|-----------------------|
--2--2--2--2--2--2--2--2--|--2------0-----------|-----------------------|--3----3----3--3--3----|
--------------------------|----------------3----|--0----0----0--0--0----|-----------------------|


                                                                                                                        
-----------------------|-----------------------|-----------------------|-----------------------|-----------------------|
-----------------------|-----------------------|-----------------------|-----------------------|-----------------------|
--0----0----0--0--0----|--2----2----2--2--2----|-----------------------|--3----3----3--3--3----|--5----5----5--5--5----|
-----------------------|-----------------------|--0----0----0--0--0----|-----------------------|-----------------------|


                        Riff 1                                                                                  
-----------------------|-----------------------------|----------------------------|----------------------------|
-----------------------|-----------------------------|----------------------------|----------------------------|
--7----7----7--7--7----|-----------------------------|----------------------------|----------------------------|
-----------------------|--0--0-0-0--0--0-0-0--0--0-0-|--0--0-0-0--0--0-0-0--2--3--|--0--0-0-0--0--0-0-0--0--2--|


                     Verse 2                                                                                 
--------------------|-----------------------------|----------------------------|----------------------------|
--------------------|-----------------------------|----------------------------|----------------------------|
-----------5--------|-----------------------------|----------------------------|--0--0-0-0--0--0-0-0--2--3--|
--3-----------------|--0--0-0-0--0--0-0-0--0--0-0-|--0--0-0-0--0--0-0-0--2--3--|----------------------------|


                                                                                                                 
------------------------|-----------------------------|----------------------------|----------------------------|
------------------------|-----------------------------|----------------------------|----------------------------|
--2--2-2-2--0-----------|-----------------------------|----------------------------|--0--0-0-0--0--0-0-0--2--3--|
-------------------3----|--0--0-0-0--0--0-0-0--0--0-0-|--0--0-0-0--0--0-0-0--2--3--|----------------------------|


                         Bridge                                                                          
------------------------|----------------------|--------------------------|-----------------------------|
------------------------|----------------------|--------------------------|-----------------------------|
--2--2-2-2--3------5----|--3----3----3----3----|--3--3--3--3--3--3--3--2--|-----------------------------|
------------------------|----------------------|--------------------------|--0--0-0-0--0--0-0-0--0--0-0-|


                                                                                                           
-----------------------------|----------------------|--------------------------|--------------------------|
-----------------------------|----------------------|--------------------------|--------------------------|
-----------------------------|--5----5----5----5----|--5--5--5--5--5--5--5--5--|--2--2--2--2--2--2--2--2--|
--0--0-0-0--0--0-0-0--0--0-0-|----------------------|--------------------------|--------------------------|


                      Chorus                                                                                          
---------------------|-----------------------|-----------------------|-----------------------|-----------------------|
---------------------|-----------------------|-----------------------|-----------------------|-----------------------|
--2------0-----------|-----------------------|--3----3----3--3--3----|--0----0----0--0--0----|--2--2--2--0-----------|
----------------3----|--0----0----0--0--0----|-----------------------|-----------------------|------------------3----|


                                                                                                
-----------------------|-----------------------|-----------------------|-----------------------|
-----------------------|-----------------------|-----------------------|-----------------------|
-----------------------|--3----3----3--3--3----|--5----5----5--5--5----|--7----7----7--7--7----|
--0----0----0--0--0----|-----------------------|-----------------------|-----------------------|


                                                                                                                        
-----------------------------|-----------------------------|-----------------------------|-----------------------------|
-----------------------------|-----------------------------|-----------------------------|-----------------------------|
-----------------------------|--3--3-3-3--3--3-3-3--3--3-3-|-----------------------------|--2--2-2-2--3--2-2-2--2--2-2-|
--0--0-0-0--0--0-0-0--0--0-0-|-----------------------------|--5--5-5-5--5--5-5-5--5--5-5-|-----------------------------|


                                                                                          Riff 2 (stick)         
-----------------------------|-----------------------------|-----------------------------|-------------------|
-----------------------------|-----------------------------|-----------------------------|-------------------|
-----------------------------|--3--3-3-3--3--3-3-3--3--3-3-|--5--5-5-5--5--5-5-5--5--5-5-|--7----------------|
--0--0-0-0--0--0-0-0--0--0-0-|-----------------------------|-----------------------------|--0----------------|

[ Tab from: http://www.guitartabs.cc/tabs/h/hammerfall/destined_for_glory_btab.html ]
                                                                                                  
------------------|-------------------|-------------------|-------------------|------------------|
------------------|-------------------|-------------------|-------------------|------------------|
------------------|--5----------------|----------------5--|--7----------------|------------------|
------------------|-------------------|-------------------|--0----------------|------------------|


                                                                                                         
--------------------------|--------------------------|------------------------------|-------------------|
--------------------------|--------------------------|------------------------------|-------------------|
--3--3--3--3--3--3--3--3--|--5--5--5--5--5--5--5--5--|--7--7-7-7--7-7-7--7-7-7--7-7-|--7----------------|
--------------------------|--------------------------|------------------------------|--0----------------|


                                                                                                      
------------------------------|-------------------|------------------------------|-------------------|
------------------------------|-------------------|------------------------------|-------------------|
--5--5-5-5--5-5-5--5-5-5--5-5-|--5----------------|--7--7-7-7--7-7-7--7-7-7--7-7-|--7----------------|
------------------------------|-------------------|------------------------------|--0----------------|


                                                              Solo                           
------------------------------|------------------------------|------------------------------|
------------------------------|------------------------------|------------------------------|
--3--3-3-3--3-3-3--3-3-3--3-3-|--5--5-5-5--5-5-5--5-5-5--5-5-|--7--7-7-7--7-7-7--7-7-7--7-7-|
------------------------------|------------------------------|------------------------------|


                                                                                                                   
------------------------------|------------------------------|---------------------|------------------------------|
------------------------------|------------------------------|---------------------|------------------------------|
--5--5-5-5--5-5-5--5-5-5--5-5-|--3--3-3-3--3-3-3--3-3-3--3-3-|--5------3------2----|------------------------------|
------------------------------|------------------------------|---------------------|--5--5-5-5--5-5-5--5-5-5--5-5-|


                                                                                    Riff 2 (stick)                   
------------------------------|------------------------------|---------------------|-----------------------------|
------------------------------|------------------------------|---------------------|-----------------------------|
------------------------------|--3--3-3-3--3-3-3--3-3-3--3-3-|--5------3------5----|--7--7-7-7--7--7-7-7--7--7-7-|
--3--3-3-3--3-3-3--3-3-3--3-3-|------------------------------|---------------------|-----------------------------|


                                                                                                                        
-----------------------------|-----------------------------|-----------------------------|-----------------------------|
-----------------------------|-----------------------------|-----------------------------|-----------------------------|
--7--7-7-7--7--7-7-7--7--7-7-|--5--5-5-5--5--5-5-5--5--5-5-|--5--5-5-5--5--5-5-5--5--5-5-|--7--7-7-7--7--7-7-7--7--7-7-|
-----------------------------|-----------------------------|-----------------------------|-----------------------------|


                                                                                          
-----------------------------|-----------------------------|-----------------------------|
-----------------------------|-----------------------------|-----------------------------|
--7--7-7-7--7--7-7-7--7--7-7-|--3--3-3-3--3--3-3-3--3--3-3-|--5--5-5-5--5--5-5-5--5--5-5-|
-----------------------------|-----------------------------|-----------------------------|


                                                                                             
------------------------------|------------------------------|------------------------------|
------------------------------|------------------------------|------------------------------|
--9--9-9-9--9-9-9--9-9-9--9-9-|--9--9-9-9--9-9-9--9-9-9--9-9-|--7--7-7-7--7-7-7--7-7-7--7-7-|
------------------------------|------------------------------|------------------------------|


                                                                                             
------------------------------|------------------------------|------------------------------|
------------------------------|------------------------------|------------------------------|
--7--7-7-7--7-7-7--7-7-7--7-7-|--9--9-9-9--9-9-9--9-9-9--9-9-|--9--9-9-9--9-9-9--9-9-9--9-9-|
------------------------------|------------------------------|------------------------------|


                                                                                             
------------------------------|------------------------------|------------------------------|
------------------------------|------------------------------|------------------------------|
--5--5-5-5--5-5-5--5-5-5--5-5-|--7--7-7-7--7-7-7--7-7-7--7-7-|--9--9-9-9--9-9-9--9-9-9--9-9-|
------------------------------|------------------------------|------------------------------|


                                                                                             
------------------------------|------------------------------|------------------------------|
------------------------------|------------------------------|------------------------------|
--9--9-9-9--9-9-9--9-9-9--9-9-|--7--7-7-7--7-7-7--7-7-7--7-7-|--7--7-7-7--7-7-7--7-7-7--7-7-|
------------------------------|------------------------------|------------------------------|


                                                                                             
------------------------------|------------------------------|------------------------------|
------------------------------|------------------------------|------------------------------|
--9--9-9-9--9-9-9--9-9-9--9-9-|--9--9-9-9--9-9-9--9-9-9--9-9-|--5--5-5-5--5-5-5--5-5-5--5-5-|
------------------------------|------------------------------|------------------------------|


                                                                                             
------------------------------|------------------------------|------------------------------|
------------------------------|------------------------------|------------------------------|
--7--7-7-7--7-7-7--7-7-7--7-7-|--3--3-3-3--3-3-3--3-3-3--3-3-|--5--5-5-5--5-5-5--5-5-5--5-5-|
------------------------------|------------------------------|------------------------------|


                                                     Chorus                                                      
------------------------------|---------------------|-------------------|-------------------|-------------------|
------------------------------|---------------------|-------------------|-------------------|-------------------|
--2--2-2-2--2-2-2--2-2-2--2-2-|--2------3------5----|--7----------------|--3----------------|-------------------|
------------------------------|---------------------|--0----------------|-------------------|--5----------------|


                                                                                                    
-------------------|-------------------|-------------------|-------------------|-------------------|
-------------------|-------------------|-------------------|-------------------|-------------------|
-------------------|--7----------------|--3----------------|--5----------------|--7----------------|
--7----------------|--0----------------|-------------------|-------------------|--0----------------|


                                                                                                                        
-----------------------------|-----------------------------|-----------------------------|-----------------------------|
-----------------------------|-----------------------------|-----------------------------|-----------------------------|
-----------------------------|--5--5-5-5--5--5-5-5--5--5-5-|-----------------------------|--4--4-4-4--4--4-4-4--4--4-4-|
--2--2-2-2--2--2-2-2--2--2-2-|-----------------------------|--7--7-7-7--7--7-7-7--7--7-7-|-----------------------------|


                                                                                                              
-----------------------------|-----------------------------|-----------------------------|-------------------|
-----------------------------|-----------------------------|-----------------------------|-------------------|
-----------------------------|--5--5-5-5--5--5-5-5--5--5-5-|--7--7-7-7--7--7-7-7--7--7-7-|--9----------------|
--2--2-2-2--2--2-2-2--2--2-2-|-----------------------------|-----------------------------|-------------------|


                                                                                                        
-------------------|-------------------|-------------------|-------------------|-----------------------|
-------------------|-------------------|-------------------|-------------------|-----------------------|
--5----------------|-------------------|--3----------------|-------------------|--2--2--2--0-----------|
-------------------|--0----------------|-------------------|--5----------------|------------------3----|


                                                                                                              
-------------------|-------------------|-------------------|-------------------|-----------------------------|
-------------------|-------------------|-------------------|-------------------|-----------------------------|
-------------------|--3----------------|--5----------------|--7----------------|-----------------------------|
--0----------------|-------------------|-------------------|--0----------------|--0--0-0-0--0--0-0-0--0--0-0-|


                                                                                                                        
-----------------------------|-----------------------------|-----------------------------|-----------------------------|
-----------------------------|-----------------------------|-----------------------------|-----------------------------|
--3--3-3-3--3--3-3-3--3--3-3-|-----------------------------|--2--2-2-2--3--2-2-2--2--2-2-|-----------------------------|
-----------------------------|--5--5-5-5--5--5-5-5--5--5-5-|-----------------------------|--0--0-0-0--0--0-0-0--0--0-0-|


                                                                                Outro                         
-----------------------------|-----------------------------|-------------------|-----------------------------|
-----------------------------|-----------------------------|-------------------|-----------------------------|
--3--3-3-3--3--3-3-3--3--3-3-|--5--5-5-5--5--5-5-5--5--5-5-|--7----------------|-----------------------------|
-----------------------------|-----------------------------|--0----------------|--0--0-0-0--0--0-0-0--0--0-0-|


                                                                                                         
----------------------------|----------------------------|--------------------|-------------------------|
----------------------------|----------------------------|--------------------|-------------------------|
----------------------------|----------------------------|-----------5--------|--7--7-7-7--9----7----5--|
--0--0-0-0--0--0-0-0--2--3--|--0--0-0-0--0--0-0-0--0--2--|--3-----------------|-------------------------|


                     
-------------------||
-------------------||
--7----------------||
--0----------------||


Comments