Hammerfall - Champion Rhythm Chords & Tabs

 

Champion Rhythm Chords & Tabs

Hammerfall Chords & Tabs

Version: 1 Type: Tab 0 ratings
1 star 2 stars 3 stars 4 stars 5 stars
comments

Champion Rhythm Tab

                                 The Champion                                   


                                   Oscar Dronjak, Joacim Cans & Jesper Strömblad

Tabbed by Martin Kahnberg aka Owain ap Nghân
mail: owain@home.se

rhy git

    intro (first chord only played 2nd time)                               
D#||--------------------|------------------|------------------|
A#||--------------------|------------------|------------------|
F#||*-------------------|------------------|------------------|
C#||*--7----------------|------------------|------------------|
G#||---7----------------|------------------|------------------|
D#||---5----------------|------------------|------------------|


                        riff 1                            
----------------------||----------------------------------|
----------------------||----------------------------------|
-----------5---------*||*---------------------------------|
--3--------5----5----*||*--7------------------------------|
--3--------3----5-----||---7------------------------------|
--1-------------3-----||---5--5-5-5-5-5-5-5-5-5-5-5-5-5-5-|


                                                                     
----------------------------------|---------------------------------|
----------------------------------|---------------------------------|
----------------------------------|---------------------------------|
----------------------------------|---------------------------------|
----------------------------------|---------------------------------|
--5-5-5-5-5-5-5-5-5-5-5-5-5-5-5-5-|--5--5-5-5-5-5-5-5-5-5-5-5-5-5-5-|


                              verse 1                          
----------------------------||----------------------------------|
----------------------------||----------------------------------|
-----------------5---------*||*---------------------------------|
--3--------------5----5----*||*--7------------------------------|
--3--------------3----5-----||---7------------------------------|
--1--1-1-1-1-1-1------3-----||---5--5-5-5-5-5-5-5-5-5-5-5-5-5-5-|


                                                                       
------------------------------------|---------------------------------|
------------------------------------|---------------------------------|
------------------9-9-7-7-10-10-9-9-|---------------------------------|
------------------------------------|--7------------------------------|
------------------------------------|--7------------------------------|
--5-5-5-5-5-5-5-5-------------------|--5--5-5-5-5-5-5-5-5-5-5-5-5-5-5-|


                        bridge                                 
----------------------||--------------------|---------------------|
----------------------||--------------------|---------------------|
-----------5---------*||--------------------|--2----4----5--------|
--3--------5----5----*||--2--------3--------|--2----4----5--------|
--3--------3----5-----||--2--------3--------|--0----2----3--------|
--1-------------3-----||--0--------1--------|---------------------|


                                                                         
-------------------|-------------------|--------------------------------|
-------------------|-------------------|--------------------------------|
--7----------------|--9----------------|--------------------------------|
--7----------------|--9----------------|--2--------------3--------------|
--5----------------|--7----------------|--2--------------3--------------|
-------------------|-------------------|--0--0-0-0-0-0-0-1--1-1-1-1-1-1-|


                                                                  
-------------------------------|---------------------------------|
-------------------------------|---------------------------------|
--2------4------5--------------|--7------------------7---7---7---|
--2------4------5--------------|--7------------------5---7---5---|
--0--0-0-2--2-2-3--3-3-3-3-3-3-|--5--5-5-5-5-5-5-5-5-5-5-5-5-5-5-|
-------------------------------|---------------------------------|


                                  chorus                           
---------------------------------|-------------------|--------------------|
---------------------------------|-------------------|--------------------|
--9------------------------------|-------------------|----------4----5----|
--9------------------------------|--7----------------|----------4----5----|
--7--7-7-7-7-7-7-7-7-7-7-7-7-7-7-|--7----------------|----------2----3----|
---------------------------------|--5----------------|--------------------|


                                                             
-------------------|--------------------|-------------------|
-------------------|--------------------|-------------------|
-------------------|--5-----------------|-------------------|
--3----------------|--5--------5--------|--7----------------|
--3----------------|--3--------5--------|--7----------------|
--1----------------|-----------3--------|--5----------------|


                                                              
--------------------|-------------------|--------------------|
--------------------|-------------------|--------------------|
----------4----5----|--7----------------|--5-----------------|
----------4----5----|--7----------------|--5--------5--------|
----------2----3----|--5----------------|--3--------5--------|
--------------------|-------------------|-----------3--------|


 riff 1                                                       
|-------------------------------|------------------------------|
|-------------------------------|------------------------------|
|*------------------------------|------------------------------|
|*--7---------------------------|--7---------------------------|
|---7--------------7----5----8--|--7--------------3----2----5--|
|---5--5-5-5-5-5-5-5--5-5--5-5--|--5--5-5-5-5-5-5-5--5-5--5-5--|


                                                             
------------------------------|----------------------------||
------------------------------|----------------------------||
------------------------------|-----------------5---------*||
--7---------------------------|--3--------------5----5----*||
--5--------------2---------2--|--3--------------3----5-----||
--5--5-5-5-5-5-5-3--3-3--3-3--|--1--1-1-1-1-1-1------3-----||


verse 2                                                                 
----------------------------------|------------------------------------|
----------------------------------|------------------------------------|
*---------------------------------|------------------9-9-7-7-10-10-9-9-|
*--7------------------------------|------------------------------------|
---7------------------------------|------------------------------------|
---5--5-5-5-5-5-5-5-5-5-5-5-5-5-5-|--5-5-5-5-5-5-5-5-------------------|


                                                          bridge             
---------------------------------|----------------------||--------------------|
---------------------------------|----------------------||--------------------|
---------------------------------|-----------5---------*||--------------------|
--7------------------------------|--3--------5----5----*||--2--------3--------|
--7------------------------------|--3--------3----5-----||--2--------3--------|
--5--5-5-5-5-5-5-5-5-5-5-5-5-5-5-|--1-------------3-----||--0--------1--------|


                                                              
---------------------|-------------------|-------------------|
---------------------|-------------------|-------------------|
--2----4----5--------|--7----------------|--9----------------|
--2----4----5--------|--7----------------|--9----------------|
--0----2----3--------|--5----------------|--7----------------|
---------------------|-------------------|-------------------|


                                                                 
--------------------------------|-------------------------------|
--------------------------------|-------------------------------|
--------------------------------|--2------4------5--------------|
--2--------------3--------------|--2------4------5--------------|
--2--------------3--------------|--0--0-0-2--2-2-3--3-3-3-3-3-3-|
--0--0-0-0-0-0-0-1--1-1-1-1-1-1-|-------------------------------|


                                                                    
---------------------------------|---------------------------------|
---------------------------------|---------------------------------|
--7------------------7---7---7---|--9------------------------------|
--7------------------5---7---5---|--9------------------------------|
--5--5-5-5-5-5-5-5-5-5-5-5-5-5-5-|--7--7-7-7-7-7-7-7-7-7-7-7-7-7-7-|
---------------------------------|---------------------------------|


chorus                                                    
-------------------|--------------------|-------------------|
-------------------|--------------------|-------------------|
-------------------|----------4----5----|-------------------|
--7----------------|----------4----5----|--3----------------|
--7----------------|----------2----3----|--3----------------|
--5----------------|--------------------|--1----------------|


                                                              
--------------------|-------------------|--------------------|
--------------------|-------------------|--------------------|
--5-----------------|-------------------|----------4----5----|
--5--------5--------|--7----------------|----------4----5----|
--3--------5--------|--7----------------|----------2----3----|
-----------3--------|--5----------------|--------------------|


                                         presolo                   
-------------------|--------------------|--------------------------|
-------------------|--------------------|--------------------------|
--7----------------|--5-----------------|--9-----------------------|
--7----------------|--5--------5--------|--9-----------------------|
--5----------------|--3--------5--------|--7--7--7--7--7--7--7--7--|
-------------------|-----------3--------|--0--0--0--0--0--0--0--0--|


                           stick                                    
--------------------------|---------------------|--------------------|
--------------------------|---------------------|--------------------|
--------------------------|------------------5--|----7----9----------|
--------------------------|----2--2----------5--|----7----9----------|
--7--7--7--7--7--7--7--7--|----2--2----------3--|----5----7----------|
--0--0--0--0--0--0--0--0--|----0--0-------------|---------0----------|

[ Tab from: http://www.guitartabs.cc/tabs/h/hammerfall/champion_rhythm_tab.html ]
                                                                       
------------------|----------------------||---------------------------|
------------------|----------------------||---------------------------|
------------------|--------------7--7----||*-----------------------5--|
------------------|----5--5------7--7----||*-----2--2--------------5--|
------------------|----5--5------5--5----||------2--2-----3--3-----3--|
------------------|----3--3--------------||---0--0--0--0--0--0--0-----|


                                                      
--------------------------|--------------------------|
--------------------------|--------------------------|
-----7-----9--------------|-----------------------5--|
-----7-----9--------------|-----2--2--------------5--|
-----5-----7--------------|-----2--2-----3--3-----3--|
--0-----0--0--0--0--0--0--|--0--0--0--0--0--0--0-----|


                          2x  solo 1                           
--------------------------||-----------------------------------|
--------------------------||-----------------------------------|
--------------------7----*||*----------------------------------|
-----5--5--------7-------*||*--4-------------------------------|
-----5--5-----5-----------||---4-------------------------------|
--0--3--3--5--------------||---2-2-2-2-2-2-2-2-2-2-2-2-2-2-2-2-|


                                                                      
----------------------------------|----------------------------------|
----------------------------------|----------------------------------|
----------------------------------|----------------------------------|
--4-------------------------------|--4-------------------------------|
--4---------------2-2-0-0---------|--4-------------------------------|
--2-2-2-2-2-2-2-2---------4-4-0-0-|--2-2-2-2-2-2-2-2-2-2-2-2-2-2-2-2-|


                                                                      
----------------------------------|----------------------------------|
----------------------------------|----------------------------------|
----------------------------------|----------------------------------|
--2-------------------------------|--4-------------------------------|
--2-------------------------------|--4-------------------------------|
--0-0-0-0-0-0-0-0-0-0-0-0-0-0-0-0-|--2-2-2-2-2-2-2-2-2-2-2-2-2-2-2-2-|


                                                                      
----------------------------------|----------------------------------|
----------------------------------|----------------------------------|
----------------------------------|--7-------------------------------|
--4-------------------------------|--7-------------------------------|
--4---------------2-2-0-0---------|--5-5-5-5-5-5-5-5-5-5-5-5-5-5-5-5-|
--2-2-2-2-2-2-2-2---------4-4-0-0-|----------------------------------|


                                      solo 2                                
-----------------------------------||-------------------|-------------------|
-----------------------------------||-------------------|-------------------|
--4-------------------------------*||--7----------------|--4----------------|
--4-------------------------------*||--7----------------|--4----------------|
--2-2-2-2-2-2-2-2-2-2-0-0-2-2-4-4--||--5----------------|--2----------------|
-----------------------------------||-------------------|-------------------|


                                                                      
----------------------------------|----------------------------------|
----------------------------------|----------------------------------|
----------------------------------|----------------------------------|
--4-------------------------------|--2-------------------------------|
--4-------------------------------|--2-------------------------------|
--2-2-2-2-2-2-2-2-2-2-2-2-4-4-5-5-|--0-0-0-0-0-0-0-0-0-0-0-0-0-0-0-0-|


                                                                           
-------------------|-------------------|----------------------------------|
-------------------|-------------------|----------------------------------|
--7----------------|--4----------------|--6-------------------------------|
--7----------------|--4----------------|--6-------------------------------|
--5----------------|--2----------------|--4-4-4-4-4-4-4-4-4-4-4-4-4-4-4-4-|
-------------------|-------------------|----------------------------------|


                                   riff 1                                 
----------------------------------|-------------------|------------------|
----------------------------------|-------------------|------------------|
----------------------------------|-------------------|------------------|
----------------------------------|--7----------------|------------------|
--4-4-4-4-4-4-4-4-4-4-4-4-4-4-4-4-|--7----------------|------------------|
----------------------------------|--5----------------|------------------|


                                          verse 3                            
------------------|---------------------||----------------------------------|
------------------|---------------------||----------------------------------|
------------------|-----------5---------||*---------------------------------|
------------------|--3--------5----5----||*--7------------------------------|
------------------|--3--------3----5----||---7------------------------------|
------------------|--1-------------3----||---5--5-5-5-5-5-5-5-5-5-5-5-5-5-5-|


                                                                       
------------------------------------|---------------------------------|
------------------------------------|---------------------------------|
------------------9-9-7-7-10-10-9-9-|---------------------------------|
------------------------------------|--7------------------------------|
------------------------------------|--7------------------------------|
--5-5-5-5-5-5-5-5-------------------|--5--5-5-5-5-5-5-5-5-5-5-5-5-5-5-|


                       bridge                                     
---------------------||---------------------|---------------------|
---------------------||---------------------|---------------------|
-----------5--------*||---------------------|--2----4----5--------|
--3--------5----5---*||--2--------3---------|--2----4----5--------|
--3--------3----5----||--2--------3---------|--0----2----3--------|
--1-------------3----||--0--------1---------|---------------------|


                                                                         
-------------------|-------------------|--------------------------------|
-------------------|-------------------|--------------------------------|
--7----------------|--9----------------|--------------------------------|
--7----------------|--9----------------|--2--------------3--------------|
--5----------------|--7----------------|--2--------------3--------------|
-------------------|-------------------|--0--0-0-0-0-0-0-1--1-1-1-1-1-1-|


                                                                  
-------------------------------|---------------------------------|
-------------------------------|---------------------------------|
--2------4------5--------------|--7------------------7---7---7---|
--2------4------5--------------|--7------------------5---7---5---|
--0--0-0-2--2-2-3--3-3-3-3-3-3-|--5--5-5-5-5-5-5-5-5-5-5-5-5-5-5-|
-------------------------------|---------------------------------|


                                  chorus                                 
---------------------------------|-------------------|--------------------|
---------------------------------|-------------------|--------------------|
--9------------------------------|-------------------|----------4----5----|
--9------------------------------|--7----------------|----------4----5----|
--7--7-7-7-7-7-7-7-7-7-7-7-7-7-7-|--7----------------|----------2----3----|
---------------------------------|--5----------------|--------------------|


                                                             
-------------------|--------------------|-------------------|
-------------------|--------------------|-------------------|
-------------------|--5-----------------|-------------------|
--3----------------|--5--------5--------|--7----------------|
--3----------------|--3--------5--------|--7----------------|
--1----------------|-----------3--------|--5----------------|


                                                              
--------------------|-------------------|--------------------|
--------------------|-------------------|--------------------|
----------4----5----|--7----------------|--5-----------------|
----------4----5----|--7----------------|--5--------5--------|
----------2----3----|--5----------------|--3--------5--------|
--------------------|-------------------|-----------3--------|


                                                             
-------------------|--------------------|-------------------|
-------------------|--------------------|-------------------|
-------------------|----------4----5----|-------------------|
--7----------------|----------4----5----|--3----------------|
--7----------------|----------2----3----|--3----------------|
--5----------------|--------------------|--1----------------|


                                                              
--------------------|-------------------|--------------------|
--------------------|-------------------|--------------------|
--5-----------------|-------------------|----------4----5----|
--5--------5--------|--7----------------|----------4----5----|
--3--------5--------|--7----------------|----------2----3----|
-----------3--------|--5----------------|--------------------|


                                          riff 1                          
-------------------|--------------------||-------------------------------|
-------------------|--------------------||-------------------------------|
--7----------------|--5-----------------||*------------------------------|
--7----------------|--5--------5--------||*--7---------------------------|
--5----------------|--3--------5--------||---7--------------7----5----8--|
-------------------|-----------3--------||---5--5-5-5-5-5-5-5--5-5--5-5--|


                                                              
------------------------------|------------------------------|
------------------------------|------------------------------|
------------------------------|------------------------------|
--7---------------------------|--7---------------------------|
--7--------------3----2----5--|--5--------------2---------2--|
--5--5-5-5-5-5-5-5--5-5--5-5--|--5--5-5-5-5-5-5-3--3-3--3-3--|

 _______                       _________
|1                            |2                     
----------------------------||--------------------------|
----------------------------||--------------------------|
-----------------5---------*||--------------------------|
--3--------------5----5----*||--3--3--3--3--3--3--3--3--|
--3--------------3----5-----||--3--3--3--3--3--3--3--3--|
--1--1-1-1-1-1-1------3-----||--1--1--1--1--1--1--1--1--|


                                              
------------------------|-------------------||
------------------------|-------------------||
--------------5---------|-------------------||
--3--3--3--3--5----5----|--7----------------||
--3--3--3--3--3----5----|--7----------------||
--1--1--1--1-------3----|--5----------------||


Comments