Hammerfall - Champion Lead Chords & Tabs

 

Champion Lead Chords & Tabs

Hammerfall Chords & Tabs

Version: 1 Type: Tab 0 ratings
1 star 2 stars 3 stars 4 stars 5 stars
comments

Champion Lead Tab

                                 The Champion                                   


                                   Oscar Dronjak, Joacim Cans & Jesper Strömblad

Tabbed by Martin Kahnberg aka Owain ap Nghân
mail: owain@home.se


lead git

    intro                                                                
D#||------------------------------|----------------------------|
A#||------------------------------|----------------------------|
F#||*--9--------------9---7---10--|--9--------------5---4---7--|
C#||*--7--------------7---7---7---|--7--------------7---7---7--|
G#||---0--0-0-0-0-0-0-------------|--0--0-0-0-0-0-0------------|
D#||------------------------------|----------------------------|


                                                     
----------------------------|----------------------||
----------------------------|----------------------||
--5--------------4-------4--|--5--------5---------*||
--7--------------5---5---5--|--5--------5----5----*||
-----0-0-0-0-0-0-----5------|-----------3----5-----||
----------------------------|----------------3-----||


riff 1                                                      
------------------------------|----------------------------|
------------------------------|----------------------------|
*--9--------------9---7---10--|--9--------------5---4---7--|
*--7--------------7---7---7---|--7--------------7---7---7--|
---0--0-0-0-0-0-0-------------|--0--0-0-0-0-0-0------------|
------------------------------|----------------------------|


                                                     
----------------------------|----------------------||
----------------------------|----------------------||
--5--------------4-------4--|--5--------5---------*||
--7--------------5---5---5--|--5--------5----5----*||
-----0-0-0-0-0-0-----5------|-----------3----5-----||
----------------------------|----------------3-----||


verse 1                                                             
------------------------------|--------------------------------------|
------------------------------|--------------------------------------|
*-----------------------------|--------------------------------------|
*--7--------------9---10---7--|----------------10-10-9-9-12-12-10-10-|
---7--7-7-7-7-7-7-7---7----7--|----7-7-7-7-7-7-----------------------|
------------------------------|--------------------------------------|


                                                        bridge             
-----------------------------|------------------------||--------------------|
-----------------------------|------------------------||--------------------|
-----------------------------|-----------------------*||--------------------|
--7--------------9---10---9--|-----------10----------*||--2--------3--------|
--7--7-7-7-7-7-7-7---7----7--|--8--------10----10-----||--2--------3--------|
-----------------------------|--8--------8-----10-----||--0--------1--------|


                                                              
---------------------|-------------------|-------------------|
---------------------|-------------------|-------------------|
--2----4----5--------|--7----------------|--9----------------|
--2----4----5--------|--7----------------|--9----------------|
--0----2----3--------|--5----------------|--7----------------|
---------------------|-------------------|-------------------|


                                                                 
--------------------------------|-------------------------------|
--------------------------------|-------------------------------|
--------------------------------|--2------4------5--------------|
--2--------------3--------------|--2------4------5--------------|
--2--------------3--------------|--0--0-0-2--2-2-3--3-3-3-3-3-3-|
--0--0-0-0-0-0-0-1--1-1-1-1-1-1-|-------------------------------|


                                                                    
---------------------------------|---------------------------------|
---------------------------------|---------------------------------|
--7------------------------------|--9------------------------------|
--7------------------5---7---5---|--9------------------------------|
--5--5-5-5-5-5-5-5-5-5-5-5-5-5-5-|--7--7-7-7-7-7-7-7-7-7-7-7-7-7-7-|
---------------------------------|---------------------------------|


chorus                                                         
--------------------|---------------------|-------------------|
--------------------|---------------------|-------------------|
--------------------|--9--------4----5----|-------------------|
--7--------------7--|-----------4----5----|--3----------------|
--7-----------------|-----------2----3----|--3----------------|
--5-----------------|---------------------|--1----------------|


                                                                
--------------------|--------------------|---------------------|
--------------------|--------------------|---------------------|
--5-----------------|--------------------|--9--------4----5----|
--5--------5--------|--7--------------7--|-----------4----5----|
--3--------5--------|--7-----------------|-----------2----3----|
-----------3--------|--5-----------------|---------------------|


                                          riff 1                         
-------------------|--------------------||------------------------------|
-------------------|--------------------||------------------------------|
--7----------------|--5-----------------||*--9--------------9---7---10--|
--7----------------|--5--------5--------||*--7--------------7---7---7---|
--5----------------|--3--------5--------||---0--0-0-0-0-0-0-------------|
-------------------|-----------3--------||------------------------------|


                                                          
----------------------------|----------------------------|
----------------------------|----------------------------|
--9--------------5---4---7--|--5--------------4-------4--|
--7--------------7---7---7--|--7--------------5---5---5--|
--0--0-0-0-0-0-0------------|-----0-0-0-0-0-0-----5------|
----------------------------|----------------------------|


                         verse 2                     
----------------------||------------------------------|
----------------------||------------------------------|
--5--------5---------*||*-----------------------------|
--5--------5----5----*||*--7--------------9---10---7--|
-----------3----5-----||---7--7-7-7-7-7-7-7---7----7--|
----------------3-----||------------------------------|


                                                                     
--------------------------------------|-----------------------------|
--------------------------------------|-----------------------------|
--------------------------------------|-----------------------------|
----------------10-10-9-9-12-12-10-10-|--7--------------9---10---9--|
----7-7-7-7-7-7-----------------------|--7--7-7-7-7-7-7-7---7----7--|
--------------------------------------|-----------------------------|


                          bridge                                    
------------------------||--------------------|---------------------|
------------------------||--------------------|---------------------|
-----------------------*||--------------------|--2----4----5--------|
-----------10----------*||--2--------3--------|--2----4----5--------|
--8--------10----10-----||--2--------3--------|--0----2----3--------|
--8--------8-----10-----||--0--------1--------|---------------------|


                                                                         
-------------------|-------------------|--------------------------------|
-------------------|-------------------|--------------------------------|
--7----------------|--9----------------|--------------------------------|
--7----------------|--9----------------|--2--------------3--------------|
--5----------------|--7----------------|--2--------------3--------------|
-------------------|-------------------|--0--0-0-0-0-0-0-1--1-1-1-1-1-1-|


                                                                  
-------------------------------|---------------------------------|
-------------------------------|---------------------------------|
--2------4------5--------------|--7------------------------------|
--2------4------5--------------|--7------------------5---7---5---|
--0--0-0-2--2-2-3--3-3-3-3-3-3-|--5--5-5-5-5-5-5-5-5-5-5-5-5-5-5-|
-------------------------------|---------------------------------|


                                  chorus                                   
---------------------------------|--------------------|---------------------|
---------------------------------|--------------------|---------------------|
--9------------------------------|--------------------|--9--------4----5----|
--9------------------------------|--7--------------7--|-----------4----5----|
--7--7-7-7-7-7-7-7-7-7-7-7-7-7-7-|--7-----------------|-----------2----3----|
---------------------------------|--5-----------------|---------------------|


                                                              
-------------------|--------------------|--------------------|
-------------------|--------------------|--------------------|
-------------------|--5-----------------|--------------------|
--3----------------|--5--------5--------|--7--------------7--|
--3----------------|--3--------5--------|--7-----------------|
--1----------------|-----------3--------|--5-----------------|

[ Tab from: http://www.guitartabs.cc/tabs/h/hammerfall/champion_lead_tab.html ]
                                                               
---------------------|-------------------|--------------------|
---------------------|-------------------|--------------------|
--9--------4----5----|--7----------------|--5-----------------|
-----------4----5----|--7----------------|--5--------5--------|
-----------2----3----|--5----------------|--3--------5--------|
---------------------|-------------------|-----------3--------|


presolo                                             
--------------------------|--------------------------|
--------------------------|--------------------------|
--9-----------------------|--------------------------|
--9-----------------------|--------------------------|
--7--7--7--7--7--7--7--7--|--7--7--7--7--7--7--7--7--|
--0--0--0--0--0--0--0--0--|--0--0--0--0--0--0--0--0--|


stick                                               
----------------------------|-----------------------|
----------------------------|-----------------------|
-------------------------9--|----7------------------|
-----9--9-----10--10-----9--|----7----9-------------|
-----7--7-----7---7---------|---------7-------------|
--0--------0----------0-----|--------------0--0--0--|


                                                           
-----------------------------|----------------------------|
-----------------------------|----------------------------|
-----------------------------|----------------------------|
-----9--9-----10--10-----10--|-----9---9---------7--7-----|
-----7--7-----7---7------10--|-----10--10--------9--9-----|
--0--------0----------0------|--0----------0--0--------0--|


                                                       
|-----------------------------|-----------------------|
|-----------------------------|-----------------------|
|*-------------------------9--|----7------------------|
|*-----9--9-----10--10-----9--|----7----9-------------|
|------7--7-----7---7---------|---------7-------------|
|---0--------0----------0-----|--------------0--0--0--|


                                                           2x solo 1        
-----------------------------|-----------------------------||-----|----|----|
-----------------------------|-----------------------------||-----|----|----|
-----------------------------|----------------------------*||*----|----|----|
-----9--9-----10--10-----10--|-----9---9---------7--7-----*||*----|----|----|
-----7--7-----7---7------10--|-----10--10--------9--9------||-----|----|----|
--0--------0----------0------|--0----------0--0--------0---||-----|----|----|


                           solo 2                                
----|----|----|----|-----||----|----|----|----|----|----|----|----|
----|----|----|----|-----||----|----|----|----|----|----|----|----|
----|----|----|----|----*||----|----|----|----|----|----|----|----|
----|----|----|----|----*||----|----|----|----|----|----|----|----|
----|----|----|----|-----||----|----|----|----|----|----|----|----|
----|----|----|----|-----||----|----|----|----|----|----|----|----|


riff 1                                                    
-----------------------------|----------------------------|
-----------------------------|----------------------------|
--9--------------9---7---10--|--9--------------5---4---7--|
--7--------------7---7---7---|--7--------------7---7---7--|
--0--0-0-0-0-0-0-------------|--0--0-0-0-0-0-0------------|
-----------------------------|----------------------------|


                                                   
----------------------------|---------------------|
----------------------------|---------------------|
--5--------------4-------4--|--5--------5---------|
--7--------------5---5---5--|--5--------5----5----|
-----0-0-0-0-0-0-----5------|-----------3----5----|
----------------------------|----------------3----|


 verse 3                                                             
|------------------------------|--------------------------------------|
|------------------------------|--------------------------------------|
|*-----------------------------|--------------------------------------|
|*--7--------------9---10---7--|----------------10-10-9-9-12-12-10-10-|
|---7--7-7-7-7-7-7-7---7----7--|----7-7-7-7-7-7-----------------------|
|------------------------------|--------------------------------------|


                                                       bridge             
-----------------------------|-----------------------||---------------------|
-----------------------------|-----------------------||---------------------|
-----------------------------|----------------------*||---------------------|
--7--------------9---10---9--|-----------10---------*||--2--------3---------|
--7--7-7-7-7-7-7-7---7----7--|--8--------10----10----||--2--------3---------|
-----------------------------|--8--------8-----10----||--0--------1---------|


                                                              
---------------------|-------------------|-------------------|
---------------------|-------------------|-------------------|
--2----4----5--------|--7----------------|--9----------------|
--2----4----5--------|--7----------------|--9----------------|
--0----2----3--------|--5----------------|--7----------------|
---------------------|-------------------|-------------------|


                                                                 
--------------------------------|-------------------------------|
--------------------------------|-------------------------------|
--------------------------------|--2------4------5--------------|
--2--------------3--------------|--2------4------5--------------|
--2--------------3--------------|--0--0-0-2--2-2-3--3-3-3-3-3-3-|
--0--0-0-0-0-0-0-1--1-1-1-1-1-1-|-------------------------------|


                                                                    
---------------------------------|---------------------------------|
---------------------------------|---------------------------------|
--7------------------------------|--9------------------------------|
--7------------------5---7---5---|--9------------------------------|
--5--5-5-5-5-5-5-5-5-5-5-5-5-5-5-|--7--7-7-7-7-7-7-7-7-7-7-7-7-7-7-|
---------------------------------|---------------------------------|


chorus                                                       
-------------------|--------------------|-------------------|
-------------------|--------------------|-------------------|
-------------------|----------4----5----|-------------------|
--7----------------|----------4----5----|--3----------------|
--7----------------|----------2----3----|--3----------------|
--5----------------|--------------------|--1----------------|


                                                              
--------------------|-------------------|--------------------|
--------------------|-------------------|--------------------|
--5-----------------|-------------------|----------4----5----|
--5--------5--------|--7----------------|----------4----5----|
--3--------5--------|--7----------------|----------2----3----|
-----------3--------|--5----------------|--------------------|


                                                              
-------------------|--------------------|--------------------|
-------------------|--------------------|--------------------|
--7----------------|--5-----------------|--------------------|
--7----------------|--5--------5--------|--7--------------7--|
--5----------------|--3--------5--------|--7-----------------|
-------------------|-----------3--------|--5-----------------|


                                                               
---------------------|-------------------|--------------------|
---------------------|-------------------|--------------------|
--9--------4----5----|-------------------|--5-----------------|
-----------4----5----|--3----------------|--5--------5--------|
-----------2----3----|--3----------------|--3--------5--------|
---------------------|--1----------------|-----------3--------|


                                                               
--------------------|---------------------|-------------------|
--------------------|---------------------|-------------------|
--------------------|--9--------4----5----|--7----------------|
--7--------------7--|-----------4----5----|--7----------------|
--7-----------------|-----------2----3----|--5----------------|
--5-----------------|---------------------|-------------------|


                      riff 1                        
--------------------||------------------------------|
--------------------||------------------------------|
--5-----------------||*--9--------------9---7---10--|
--5--------5--------||*--7--------------7---7---7---|
--3--------5--------||---0--0-0-0-0-0-0-------------|
-----------3--------||------------------------------|


                                                          
----------------------------|----------------------------|
----------------------------|----------------------------|
--9--------------5---4---7--|--5--------------4-------4--|
--7--------------7---7---7--|--7--------------5---5---5--|
--0--0-0-0-0-0-0------------|-----0-0-0-0-0-0-----5------|
----------------------------|----------------------------|

 _______                 ________
|1                      |2                                         
----------------------||-------------------|--------------------|
----------------------||-------------------|--------------------|
--5--------5---------*||--5----------------|----------5---------|
--5--------5----5----*||--5----------------|----------5----5----|
-----------3----5-----||-------------------|----------3----5----|
----------------3-----||-------------------|---------------3----|


                     
-------------------||
-------------------||
-------------------||
--7----------------||
--7----------------||
--5----------------||


Comments