Hammerfall - Back To Back Chords & Tabs

 

Back To Back Chords & Tabs

Hammerfall Chords & Tabs

Version: 1 Type: Bass Tab 0 ratings
1 star 2 stars 3 stars 4 stars 5 stars
comments

Back To Back Bass Tab

Back To Back

by HammerFall


www.metalforever.cjb.net
E-MAIL: metalforever2000@yahoo.com
Thanks for visiting us!




Tune: Half-Step Down

Intro.

|-----------------------------------------------------------------------|
|-------------------------------------------5-4-------------------------|
|----------3-2-3-2------------------3-2-3-2----------------3-2-3-2------|
|--0---------------3-2------0-----------------------0--------------3-2--|
                                                                              

|-------------------------------------------------------------------------|
|-------------------------------------------------------------------------|
|------3-2-3-2-3-5--7-7-7-7-7-7-7-7-7-7-7-7-7-7-7-7-7-7-7-7-9-9-10-10-9-9-|
|-0-----------------------------------------------------------------------|
                                                                              
Vocals.

|----------------------------------------------------------------------------|
|---------------------------------------------------------------5---7--------|
|---------------------------------7-5-3-5-------------------------5---7-10-9-|
|-0-0-0-0-0-0-0-0-0-0-0-0-0-0-0-0---------0-0-0-0-0-0-0-0-0-0-0--------------|
                                                                              
|---------------------------------------------------------------------------|
|---------------------------------------------------------------------------|
|---------------------------------7-5-3-5-3-3-3-3-3-3-3-3-5-5-5-5-5-5-5-5-7-|
|-0-0-0-0-0-0-0-0-0-0-0-0-0-0-0-0-------------------------------------------|
                                                                              
|----------------------------------------------------------------------------|
|----------------------------------------------------------------------------|
|-7-7-7-7-7-7-5-7-7-7-7-7-7-7-3-3-3-3-3-3-3-3-3-5-5-5-5-5-5-5-5-5------------|
|-----------------------------------------------------------------0-0-0-0-0-0|
                                                                              
|--------------------------------|
|--------------------------------|
|-------------7-7-9-9-10-10-9-9--|
|-0-0-0-0-0-0--------------------|                                                                              

|----------------------------------------------------------------------------|
|---------------------------------------------------------------5---7--------|
|---------------------------------7-5-3-5-------------------------5---7-10-9-|
|-0-0-0-0-0-0-0-0-0-0-0-0-0-0-0-0---------0-0-0-0-0-0-0-0-0-0-0--------------|
                                                                              
|---------------------------------------------------------------------------|
|---------------------------------------------------------------------------|
|---------------------------------7-5-3-5-3-3-3-3-3-3-3-3-5-5-5-5-5-5-5-5-7-|
|-0-0-0-0-0-0-0-0-0-0-0-0-0-0-0-0-------------------------------------------|
                                                                              
|-----------------------------|
|-----------------------------|
|-7-7-7-7-7-7-7-7-7-7-7-7-7-7-|
|-----------------------------|
                                  
Bridge.

|---------------------------------------------------------------------------|
|---------------------------------------------------------------------------|
|-0-0-0-0-0-0-0-0-0-0-0-0-3-3-3-3-3-3-3-3-3-3-3-3-5-5-5-5-5-5-5-5-5-5-5-5-7-|
|---------------------------------------------------------------------------|
                                                                              
|-----------------------------------------------------------------|
|-----------------------------------------------------------------|
|-7-7-7-7-7-7-7-7-7-7-7-3-3-3-3-3-3-3-3-3-3-3-5-5-5-5-5-5-5-5-5-5-|
|-----------------------------------------------------------------|
                                                                              
Chorus.
[ Tab from: http://www.guitartabs.cc/tabs/h/hammerfall/back_to_back_btab.html ]
back to back.......yeah.....
|-----------------------------------------------------------------------------
|-----------------------------------------------------------------------------
|-7-7-7-7-7-7-7-7-7-7-7-7-3-3-3-3-3-3-3-3-3-3-3-3-0-0-0-0-0-0-0-0-0-0-0-0-3---
|-----------------------------------------------------------------------------
                                                                              
|-----------------------||
|-----------------------||
|-3-3-3-3-3-5-5-5-5-5-5-||
|-----------------------||
                               
Vocals II.

|----------------------------------------------------------------------------|
|---------------------------------------------------------------5---7--------|
|---------------------------------7-5-3-5-------------------------5---7-10-9-|
|-0-0-0-0-0-0-0-0-0-0-0-0-0-0-0-0---------0-0-0-0-0-0-0-0-0-0-0--------------|
                                                                              
|---------------------------------------------------------------------------|
|---------------------------------------------------------------------------|
|---------------------------------7-5-3-5-3-3-3-3-3-3-3-3-5-5-5-5-5-5-5-5-7-|
|-0-0-0-0-0-0-0-0-0-0-0-0-0-0-0-0-------------------------------------------|
                                                                              
|-----------------------------|
|-----------------------------|
|-7-7-7-7-7-7-7-7-7-7-7-7-7-7-|
|-----------------------------|
                                               
Repeat Bridge, Chorus and then:

Interlude.

|-------------------------------------|
|-------------------------------------|
|-------------------------------------|
|-0-0-0-0-0-0-0-0-0-0-0-0-0-0-0-0-0-0-|
                                                                              
Riff II.

Kill with power......
|-----------------------------------------------------------|
|-----------------------------------------------------------|
|--3-3-3-3-2---3-3-3-3-2-5---3-3-3-3-2---3-3-3-3-2-5--2-3-5-|
|-----------------------------------------------------------|
                                                                              
Solo.

|--------------------------------------------------------------------------|
|--------------------------------------------------------------------------|
|---------------------------------3-3-3-3-3-3-3-3-3-3-3-3-3-3-3-3-5-5-5-5-5|
|-0-0-0-0-0-0-0-0-0-0-0-0-0-0-0-0------------------------------------------|
                                                                              
|--------------------------------------------------------||
|--------------------------------------------------------||
|-5-5-5-5-5-5-5-5-5-5-5-----------------2-2-2-2-2-2-2-2--||
|-----------------------3-3-3-3-3-3-3-3------------------||
                                                                              
Solo (Last Part)

|--------------------------------------------------------------------------|
|--------------------------------------------------------------------------|
|-7-7-7-7-7-7-7-7-7-7-7-7-7-7-7-7-3-3-3-3-3-3-3-3-3-3-3-3-3-3-3-3-5-5-5-5-5|
|--------------------------------------------------------------------------|                                                                             

|---------------------------------------|
|---------------------------------------|
|-5-5-5-5-5-5-5-5-5-5-5-----------------|
|--------------------------0--2--3--5---|
                                                                              
After Solo.

|---------------------------------------------------------------------------|
|---------------------------------------------------------------------------|
|-3-3-3-3-3-3-3-3-3-3-3-3-5-5-5-5-5-5-5-5-5-5-5-3-3-3-3-3-3-3-3-3-3-3-3-5-5-|
|---------------------------------------------------------------------------|
                                                                              

|----------------------------------------------7--|
|----------------------------------------------7--|
|-5-5-5-5-5-5-5-5-5-5-3-3-3-3-3-3-3-3-3-3-3-3--5--|
|-------------------------------------------------|
                                                                              
Repeat Vocals II, Bridge, Chorus and then:

Riff 3.

|--------------------------------|
|--------------------------------|
|---------------------7---5---7--|
|---0-----0-----0----------------|
                                                                              

End.
Comments