Hammerfall - At The End Of The Rainbow Chords & Tabs

 

At The End Of The Rainbow Chords & Tabs

Hammerfall Chords & Tabs

Version: 1 Type: Bass Tab 0 ratings
1 star 2 stars 3 stars 4 stars 5 stars
comments

At The End Of The Rainbow Bass Tab

This is all the bass in this song. It's not hard at all, great for novices!

G||-----------------------|------------------------|------------------------|
D||-----------------------|------------------------|------------------------|
A||-----------------------|------------------------|------------------------|
E||--6/---0----0--0--0----|--0--0--0----0--0--0----|--0--0--0----0--0--0----|

[ Tab from: http://www.guitartabs.cc/tabs/h/hammerfall/at_the_end_of_the_rainbow_btab.html ]
                                                                           
------------------------|------------------------|------------------------|
------------------------|------------------------|------------------------|
------------------------|------------------------|------------------------|
--0--0--0----0--0--0----|--0--0--0----0--0--0----|--0--0--0----0--0--0----|


                                                                           
------------------------|------------------------|------------------------|
------------------------|------------------------|------------------------|
------------------------|------------------------|------------------------|
--0--0--0----0--0--0----|--0--0--0----0--0--0----|--0--0--0----0--0--0----|


                                                                            
------------------------|------|------|------|------|------|------||-------|
------------------------|------|------|------|------|------|------||*------|
------------------------|------|------|------|------|------|------||*------|
--0--0--0----0--0--0----|------|------|------|------|------|------||-------|
Comments