Hammer Jan - Crocketts Theme Chords & Tabs

 

Crocketts Theme Chords & Tabs

Hammer Jan Chords & Tabs

Version: 1 Type: Tab 0 ratings
1 star 2 stars 3 stars 4 stars 5 stars
comments

Crocketts Theme Tab

                               Crockett's Theme                                 
                                 By Jan Hammer

Transcribed by Tom

Listen to the actual song for the note patterns
                                                                        
E||--7/9----7---------------|-----------------------|-----------------------|------------||
B||--------------9/---------|--7---------7----7b----|-------7---------7b----|------------||
G||--------------------9----|-------9---------------|--9---------9----------|--9----6----||
D||-------------------------|-----------------------|-----------------------|------------||
A||-------------------------|-----------------------|-----------------------|------------||
E||-------------------------|-----------------------|-----------------------|------------||


E||--7/9----7---------------|-----------------------|-----------------------|-----------------|
B||--------------9/---------|--7---------7----7b----|-------7----7----------|--7----7---------|
G||--------------------9----|-------9---------------|--9--------------9-----|------------9----|
D||-------------------------|-----------------------|-----------------------|-----------------|
A||-------------------------|-----------------------|-----------------------|-----------------|
E||-------------------------|-----------------------|-----------------------|-----------------|

[ Tab from: http://www.guitartabs.cc/tabs/h/hammer_jan/crocketts_theme_tab.html ]
E||-------------------------||
B||--7/9----7---------------||
G||--------------9-----6----||
D||-------------------------||
A||-------------------------||
E||-------------------------||


E||--7/9----7---------------|-----------------------|-----------------------|------------||
B||--------------9/---------|--7---------7----7b----|-------7---------7b----|------------||
G||--------------------9----|-------9---------------|--9---------9----------|--9----6----||
D||-------------------------|-----------------------|-----------------------|------------||
A||-------------------------|-----------------------|-----------------------|------------||
E||-------------------------|-----------------------|-----------------------|------------||


E||--7/9----7---------------|-----------------------|----------------------|--------------|
B||--------------9/---------|--7---------7----7b----|-------7----7----9----|--10----10----|
G||--------------------9----|-------9---------------|--9-------------------|--------------|
D||-------------------------|-----------------------|----------------------|--------------|
A||-------------------------|-----------------------|----------------------|--------------|
E||-------------------------|-----------------------|----------------------|--------------|


E||--7----9----------7----|-------||
B||------------10---------|-------||
G||-----------------------|--9----||
D||-----------------------|-------||
A||-----------------------|-------||
E||-----------------------|-------||
Comments