Hamm Stu - Quahogs Anyone Chords & Tabs

 

Quahogs Anyone Chords & Tabs

Hamm Stu Chords & Tabs

Version: 1 Type: Bass Tab 0 ratings
1 star 2 stars 3 stars 4 stars 5 stars
comments

Quahogs Anyone Bass Tab

   
		         Quahogs Anyone
		         ==============


						Stu Hamm
A
||--(5)----17----17----(7)-19-(5)-17-|----17----17-(7)-19-(5)-17----|
||o-(5)-17----17----17---------------|-17----17-----------------17--|
||o----------------------------------|------------------------------|
||-----------------------------------|------------------------------|
     ^^ 2nd
     time only


|-(5)----17----17----(8)-20-(5)-17-|-----17----(8)-20-(5)-17----||
|-(6)-18----18----18---------------|--18----18---------------1-o||
|----------------------------------|---------------------------o||
|----------------------------------|----------------------------||



B 0:39
||----------------------21----19-17-14-12-14-12---|
||o------12-17-------19----------------12-14-12---|
||o---10-------17-19-------19---------------------|
||--8---------------------------------------------|

|--------------------22----20-17-13-13-15-13------|
|-----20-18-------20----------------13-15-13-----o|
|---6-------18-20-------20-----------------------o|
|-4-----------------------------------------------|


|-------------------16------16-14----------|
|-----9-14-------14---------------14-------|
|---7------14-15---------15----------14-15-|
|-5--------------------5-------------------|

|------9-11-------10-12-14--|
|---10---------10-----------|
|-9----------8--------------|
|---------------------------|


|-----------------------------------------------------------|
|-----9-----16------------9----14---------------------------|
|---7----16----14-16----7---15----14-15---------------------|
|-5-------------------5-------------------------------------|


|----------16----------------------16-----------------------||
|----12-14----14-12-------12-14-15--------------------------||
|-10----------------14-10-----------------------------------||
|-----------------------------------------------------------||


[ Tab from: http://www.guitartabs.cc/tabs/h/hamm_stu/quahogs_anyone_btab.html ]
C 1:19     ...etc
|-14-14-14-------16-16-16---------17-17-17------------------|
|-15-15-15-------15-15-15---------17-17-17------------------|
|-8--------------8---------8-10-8-7------------5-3----------|
|-------------8------------------------------------3-0------|

|-14--------------15----------------------------------------|
|-15--------------15----------------------------------------|
|--------5-------------8-10-8-------------------------------|
|-EX2--5-----10-8-6------------10-8--6----------------------|

|-14------------------------------19--|
|-15------------------10-15-----------|
|--------5----------8-------15-17-----|
|-EX2--5-----10-8-6-------------------|


|--------------------------------||
|-----------5-16-17-----------5--||
|---------5---------17-19-17--5--||
|-6-5-4-3---------------------3--||


This is the tab to the first part of Stu Hamm's live solo, as  
recorded on "The Urge", as transcribed by me. This is the first 2  
minutes - basicaly all the "Surely the Best" based material, up to  
the start of "Linus and Lucy". I've started work on the later bits,  
and may post them at some point in the future - however the rest has  
some _realy_ dificult parts. In the mean time, the section  
presented here is a logically complete unit.

Notes
1	Section A is played using tapped harmonics - Very easy, but  
it sounds brilliant. Fret the bracketed notes, then tap the written  
notes with your right hand. As with all this tab, phrasing must be  
got from the record.

2	In Section B the first three or so noet of each phrase are  
played with the left hand, and the rest is tapped, or slided with  
the right hand. The exact details are pretty easy to work out.

3	The last section is actually pretty tricky. Right hand  
plays the quavers on the top two strings (I've only written the  
first two of each group).Left Hammers on the melody/bass line. Some  
of the rhythms are quite tricky (good practise for "L&L").

4	There are two notes written as "EX2". These are bottom D's  
played using the Kubicki Extender. If you don't have a Kubicki you  
will either have to a) skip this section, b)detune, and work out the  
new section or c) use a hipshot, and hit it at just the right time.


If you find this of interest, then mail me and it may spur me to  
type in more of my stuff.

Ian Stephenson
ian@ohm.york.ac.uk
Comments