Hamlet - Limitate Chords & Tabs

 

Limitate Chords & Tabs

Hamlet Chords & Tabs

Version: 2 Type: Tab 0 ratings
1 star 2 stars 3 stars 4 stars 5 stars
comments

Limitate Tab

#--------------------------------Guitar Tab------------------------------------#
#                            Hamlet - Limitate                                 #
#                            Tabbed By XaViMei                                 #
#                           XaViMei@hotmail.com                                #
#------------------------------------------------------------------------------#

////////////////////
x = palm mute
p = pull off
p = hammer on
/ = slide
///////////////////

Intro (x8)
e:---------------------------------|
B:---------------------------------|
G:---------------------------------|
D:---------------------------------|
A:---------------------------------|
E:--6h7h8-6-8-8-8-6h7h8-6-9-9-9-9--|


 |- - - - - - - - -(x4)- - - - - - - -|
e:------------------------------------|-----|(0:22)
B:------------------------------------|-----|
G:------------------------------------|-----|
D:--8--8--8--8--8--8--8---10--10--10--|--8--|
A:--8--8--8--8--8--8--8---10--10--10--|--8--|
E:--6--6--6--6--6--6--6---9---9---9---|--6--|


Bass tab (played with guitar)
e:-------------------------------------------------------------------|(0:35)
B:-------------------------------------------------------------------|
G:-------------------------------------------------------------------|
D:-------------------------------------------------------------------|
A:-------------------------------------------------------------------|
E:--6--6--6--6--6--6--6--6--6--6--7/5--5--2--2--2--2--1--1--1--1--1--|

Verse
e:----------------------------------------------------|(0:45)
B:----------------------------------------------------|
G:----------------------------------------------------|
D:--8--x-x-x-x-x-x------4--x-x-x-x-x--3--x-x-x--3--8--|
A:--8--x-x-x-x-x-x------4--x-x-x-x-x--3--x-x-x--3--8--|
E:--6--x-x-x-x-x-x--6p4-2--x-x-x-x-x--1--x-x-x--1--6--|

Chorus1 (x4)
e:---------------------------------|(1:07)
B:---------------------------------|
G:---------------------------------|
D:---------------------------------|
A:---------------------------------|
E:--6h7h8-6-8-8-8-6h7h8-6-9-9-9-9--|
[ Tab from: http://www.guitartabs.cc/tabs/h/hamlet/limitate_tab_ver_2.html ]
Chorus2
e:------------------------------------|-----|(1:19)
B:------------------------------------|-----|
G:------------------------------------|-----|
D:--8--8--8--8--8--8--8---10--10--10--|--8--|
A:--8--8--8--8--8--8--8---10--10--10--|--8--|
E:--6--6--6--6--6--6--6---9---9---9---|--6--|


2nd Verse (with distorsion)
e:----------------------------------------------------|(1:30)
B:----------------------------------------------------|
G:----------------------------------------------------|
D:--8--8-8-8-8-8-8------4--4-4-4-4-4--3--3-3-3--3--8--|
A:--8--8-8-8-8-8-8------4--4-4-4-4-4--3--3-3-3--3--8--|
E:--6--6-6-6-6-6-6--6h4-2--2-2-2-2-2--1--1-1-1--1--6--|

Play this after 2nd verse
e:----------------------------------|-----------------------------------------|(1:53)
B:----------------------------------|-----------------------------------------|
G:----------------------------------|-----------------------------------------|
D:--8--8--8--8--10--10--10/9--9--9--|--10--10--10--10--12---12---12---10--10--|
A:--8--8--8--8--10--10--10/9--9--9--|--10--10--10--10--12---12---12---10--10--|
E:--6--6--6--6--8---8--- 8/7--7--7--|--9---9---9---9---10---10---10---9---9---|

e:-------------------------------------------------------------|(2:27)
B:-------------------------------------------------------------|
G:-------------------------------------------------------------|
D:-------------------------------------------------------------|
A:-------------------------------------------------------------|
E:--6--6--6--6--9--9--9--9--9/8--8--2--2--2--2--1--1--1--1--1--|

e:----------------------------------------------------------------|(2:49)
B:----------------------------------------------------------------|
G:----------------------------------------------------------------|
D:--8--8--8--8--11--11--11--11--11/10--4--4--4--4--3--3--3--3--3--|
A:--8--8--8--8--11--11--11--11--11/10--4--4--4--4--3--3--3--3--3--|
E:--6--6--6--6--9---9---9---9----9/8---2--2--2--2--1--1--1--1--1--|

e:---------------------------------|(3:12)
B:---------------------------------|
G:---------------------------------|
D:---------------------------------|
A:---------------------------------|
E:--6h7h8-6-8-8-8-6h7h8-6-9-9-9-9--|

e:------------------------------------|-----|(3:23)
B:------------------------------------|-----|
G:------------------------------------|-----|
D:--8--8--8--8--8--8--8---10--10--10--|--8--|
A:--8--8--8--8--8--8--8---10--10--10--|--8--|
E:--6--6--6--6--6--6--6---9---9---9---|--6--|
Comments