Halo Friendlies - Sellout Chords & Tabs

 

Sellout Chords & Tabs

Halo Friendlies Chords & Tabs

Version: 1 Type: Tab 0 ratings
1 star 2 stars 3 stars 4 stars 5 stars
comments

Sellout Tab

Band - Halo Friendlies
Song - Sellout
Album - Get Real

Tuning - Standard

Intro - Guitar 1            Guitar 2:
e:---:                  e:----------------:
b:---:                  b:----------------:
g:-9-:                  g:-7-9-9-7-9-9-7--:   Guitar 2 does this at the
d:-9-:  Volume Swell    d:--------------9-:   end of the intro.
a:-7-:                  a:----------------:
E:---:                  E:----------------:

Verse & Pre-Chorus - Both Guitars
 "I wear it so well..."
e:---------------------------:
b:---------------------------:
g:---------------------9-----:    Palm Mute for 1 verse then play normally 
d:-9------4------7-----9-x12-:    for the other.
a:-9-x12--4-x12--7-x12-7-----:
E:-7------2------5-----------:

Chrous - Both Guitars
[ Tab from: http://www.guitartabs.cc/tabs/h/halo_friendlies/sellout_tab.html ]
 "Was it something I said..."
e:-----------------------:
b:-----------------------:
g:------7-----------9----:
d:9-----7-x6--7-----9-x6-:        At the end of the second chorus
a:9-x6--5-----7-x6--7----:        Guitars 2 does: 
E:7-----------5----------:
                             e:----------------:                 
                             b:----------------:
        Guitar 2             g:-7-9-9-7-9-9-7--:
                             d:--------------9-:
                             a:----------------:
                             E:----------------:

Solo
e:---------------------------------------------------------------:
b:---------------------------------------------------------------:
g:9-8-----9-8-----9-8------------------------------9-11-9-7-9-11-:
d:----9-7-----9-7-----9--x2--0-4-0-4-0-4-0-4-0-4-0---------------:
a:---------------------------------------------------------------:
E:---------------------------------------------------------------:

Bridge 
 "Will you ever learn"
e:----------------------------------------:
b:----------------------------------------:
g:11-----14-----9-9-9-9---9-9-9-9-9-9-----:
d:11-x6--14-x6--9-9-9-9-9-9-9-9-9-9-9--x3-:
a:9------12-----7-7-7-7-9-7-7-7-7-7-7-----:
E:----------------------7-----------------:
Comments