Halford - Wrath Of God Chords & Tabs

 

Wrath Of God Chords & Tabs

Halford Chords & Tabs

Version: 1 Type: Tab 0 ratings
1 star 2 stars 3 stars 4 stars 5 stars
comments

Wrath Of God Tab

Riff 1
||---|---------------------------------------------|
||---|---------------------------------------------|
||---|---------------------------------------------|
||-9-|---------------------------------------------|
||-9-|----------------9-10-9-----------------9-7-9-|
||-7-|777777777777777-7-8--7-777777777777777-7-5-7-|

Riff 2
|-----------------------------|
|-----------------------------|
|-----------------------------|
|-7------9------5------3------|
|-7------9------5------3------|
|-5------7------3------1------|
[ Tab from: http://www.guitartabs.cc/tabs/h/halford/wrath_of_god_tab.html ]
Riff 3
|----------------------------------------------------------------|
|----------------------------------------------------------------|
|----------------------------------------------------------------|
|-----------------------------------------------------------9----|
|-----------------------------------------------------------9----|
|-000-0-0-0-0-0-0-000-0-0-0-0-0-0-000-0-0-0-0-0-0-000-0-0-0-7----|

Riff 4
|-----------------------------------------------||
|-----------------------------------------------||
|-----------------------------------------------||
|--------------------------------------9--------||
|----------------------xx-9--7--9--10--7--7--9--||
|-77777777777777777777-xx-7--5--7--8------5--7--||


Order of song:

Riff 1
Riff 2
Riff 1
Riff 2
Riff 3
Solo
Solo backing-Riff 3
Riff 1
Riff 2
Riff 4
Comments