Halford - Resurrection Chords & Tabs

 

Resurrection Chords & Tabs

Halford Chords & Tabs

Version: 1 Type: Tab 0 ratings
1 star 2 stars 3 stars 4 stars 5 stars
comments

Resurrection Tab

Artist - Halford
Song – Resurrection 
Album - Resurrection
Tabbed by “The Raab” – demiseofsanity@msn.com

Standard Tuning

Riff 1

|-------------------------------|
|-------------------------------|
|-------------------------------|
|-7/9-7/9-----------------------|
|-5/7-5/7----------7/8-7/8----5-|
|---------00000000-5/6-5/6-00-3-|

Riff 2

|---------------------------------------------|
|---------------------------------------------|
|---------------------------------------------|
|-----------------------------------------7/9-|
|-------------------5h8-5h7-5h8-5h7-------5/7-|
|-0000000000000000------------------00000-----|
[ Tab from: http://www.guitartabs.cc/tabs/h/halford/resurrection_tab.html ]
Chorus
				    Ending 1 & 2
|--------------------------|--------|----|
|--------------------------|--------|----|
|--------------------------|--------|----|
|-2-4-5--10-9----2-4-5--10-|--------|-12-|
|-2-4-5--10-9----2-4-5--10-|--------|-12-|
|-0-2-3--8--7----0-2-3--8--|-10-8-7-|-10-|

Solo riff 1

|-----------------------|
|-----------------------|
|-----------------------|
|-5-3-5--3-5-6-8-6--3---|
|-3-1-3--1-3-4-6-4--1---|
|-----------------------|

Solo riff 2

|-----------------------|
|-----------------------|
|-----------------------|
|-----------------------|
|-5-3-5--3-5-6-8-6--3---|
|-3-1-3--1-3-4-6-4--1---|

Outro

|---------------------------------------|
|---------------------------------------|
|---------------------------------------|
|-10-9-10-12-10-9---10-9-10-12-10-12-14-|
|-10-9-10-12-10-9---10-9-10-12-10-12-14-|
|-8--7-8--10-8--7---8--7-8--10-8--10-12-|
Comments