Hale - Wishing Chords & Tabs

 

Wishing Chords & Tabs

Hale Chords & Tabs

Version: 3 Type: Tab 0 ratings
1 star 2 stars 3 stars 4 stars 5 stars
comments

Wishing Tab

Song: Wishing
Band: Hale
Tabbed by: ace estandian.............saint louis university,baguio city
Email: ........friendster po yan..........

Tuning: standard

intro<1st>
e|------------------------------------!----------------------------------|
B|--------------3-2-------------------!--------------3-2-----------------|
G|------2-4-------------2-4---2---2---!------2-4-------------2-4---2---2-|
D|--0-0-----0-0-----0-0-----0---0-----!----------------------------------|
A|------------------------------------!--2-2-----2-2-----2-2-----2---2---|
E|------------------------------------!----------------------------------|

e|------------------------------------!-----------------------------------|
B|--------------3-2-------------------!-----------------------------------|
G|------2-4-------------2-4---2---2---!-----------------------------------|
D|------------------------------------!-5-5-5-5-5-5-5-5-5---3-3-3-3---2-2-|
A|--0-0-----0-0-----0-0-----0---0-----!-5-5-5-5-5-5-5-5-5---3-3-3-3---2-2-|
E|------------------------------------!-3-3-3-3-3-3-3-3-3---1-1-1-1---0-0-|


intro<2nd> the same but this time with distortion.....and also 
           with the following power chords......
e|-------------------------------------------------------------------|
B|-------------------------------------------------------------------|
G|--7---------4------------------------------------------------------|
D|--7-strum---4-strum---7----------5-5-5-5-5-5-5-5-5---3-3-3-3---2-2-|
A|--5---------2---------7-strum----5-5-5-5-5-5-5-5-5---3-3-3-3---2-2-|
E|--x---------x---------5----------3-3-3-3-3-3-3-3-3---1-1-1-1---0-0-|


verse:

e|-2-------2-------0--------3------------------------------------------|
B|-3-------3-------2--------3------------------------------------------|
G|-2-strum-4-strum-2-strum--0-strum------------------------------------|
D|-0-------4-------2--------0--------5-5-5-5-5-5-5-5-5---3-3-3-3---2-2-|
A|---------2-------0--------2--------5-5-5-5-5-5-5-5-5---3-3-3-3---2-2-|
E|--------------------------3--------3-3-3-3-3-3-3-3-3---1-1-1-1---0-0-|
Landscapes in the wild
Upon a shore of a sea open wide
The great escape from yor wife
She's the best mistake of your life



e|---------------------------|
B|---------------------------|
G|---------------5-----------|
D|-3-3-3----5----5-strum-----|
A|-3-3-3----5----3-----------|
E|-1-1-1----3----------------|
Always starts when you cry
Never ends with a smile
All you've said was a 


e|-----------------------------------|
B|-----------------------------------|
G|-----------------------------------|
D|-5-5-5-5-5-5-5-5-5---3-3-3-3---2-2-|
A|-5-5-5-5-5-5-5-5-5---3-3-3-3---2-2-|
E|-3-3-3-3-3-3-3-3-3---1-1-1-1---0-0-|
big, big lie



[ Tab from: http://www.guitartabs.cc/tabs/h/hale/wishing_tab_ver_3.html ]
e|--------------------------------!----------------------------------------|
B|--------------------------------!----------------------------------------|
G|--7-----------------------------!-------------------------------7--------|
D|--7-strum---4----------5--------!-------7-7---5-5---4-4-2-------7-strum--|
A|--5---------4-strum----5-strum--!-------7-7---5-5---4-4-2-------5--------|
E|------------2----------3--------!-------5-5---3-3---2-2-0----------------|
On the wings of love we falter
A day with you a big disaster
Soon forever will be over




e|---------------------------------|---------------|
B|---------------------------------|---------------|
G|---------------------------------|---------------|
D|-----------2--4--5------------7--|-3-3-3-3---2-2-|then intro<2nd> again
A|-----------2--4--5------------7--|-3-3-3-3---2-2-|
E|-----------0--2--3------------5--|-1-1-1-1---0-0-|
 .....how i wish.........how i wish




then repeat the cycle for the remaining part of the song....

Never has a sweet november
All i had was a dark october
For a while i wanted to die
But i said why oh why



instrumental break:
e|---------------------------------!---------------------------------|
B|--------------8-5-------------7--!--------------8-5-------------7--|
G|------7-9-------------7-9---7----!------7-9-------------7-9---7----|
D|--0-0-----0-0-----0-0-----0------!---------------------------------|
A|---------------------------------!---------------------------------|
E|---------------------------------!--7-7-----7-7-----7-7-----7------|

e|------------------------10-9----------!-----------------|
B|--------------8-5------------10-8-7---!-----------------|
G|------7-9-------------7-------------7-!-----------------|
D|--------------------------------------!--3-3-3-3---2-2--|
A|--0-0-----0-0-----0-0-----------------!--3-3-3-3---2-2--|
E|--------------------------------------!--1-1-1-1---0-0--|

e|--------------------------------!----------------------------------------|
B|--------------------------------!----------------------------------------|
G|--7-----------------------------!-------------------------------7--------|
D|--7-strum---4----------5--------!-------7-7---5-5---4-4-2-------7-strum--|
A|--5---------4-strum----5-strum--!-------7-7---5-5---4-4-2-------5--------|
E|------------2----------3--------!-------5-5---3-3---2-2-0----------------|
repeat this for several times then end with:
e|---------------|      |---------------|
B|---------------|      |---------------|
G|---------------|3times|---7-----------|
D|-3-3-3-3---2-2-|      |---7---end-----|
A|-3-3-3-3---2-2-|      |---5-----------|
E|-1-1-1-1---0-0-|      |---------------|



sama nyo po ako sa klite live....jejejeje....
comments or suggestions? post em at my frndster acount

or txt me at 09263143096....
Comments