Hale - Wishing Chords & Tabs

 

Wishing Chords & Tabs

Hale Chords & Tabs

Version: 1 Type: Tab 0 ratings
1 star 2 stars 3 stars 4 stars 5 stars
comments

Wishing Tab

   
Wishing
Hale
Tabbed By:CHESTER ANGELO S. PONTE

Intro

e----------------------------------------------------------------------------------|
B------------0----3--2---0--------------0----3--2-----0------------0---3--2---0----|
G---------2----2-------2---2---------2-----2-------2-----2-------2---2------2---2--|
D---0--0---------------------------------------------------------------------------|
A-----------------------------2--2-------------------------0--0--------------------|
E----------------------------------------------------------------------------------|

    G            F                 E
e-------------------------------------------------|
B-------------------------------------------------|
G---5-5-5-5----3-3-3-3-------------1--------------|
D---5-5-5-5----3-3-3-3-------------2--------------|
A----------------------------------2--------------|
E---3-3-3-3----1-1-1-1----------------------------|
   (Sabayan nyo na lng ung kanta)
 
 D-Bm-A-G-F/E 

 Verse
D         Bm 
 Landscape in the water
A                  G              F/E 
 upon a shore of a sea open wide
D                 Bm
 The great escape from your world
A                     G               F/E
 She's the best mistake of your life

 
 Refrain 
A         C
 Always starts with your cry 
A        C 
 never ends with a smile 
A            C          D           F
 all you've said was a great big lie 
[ Tab from: http://www.guitartabs.cc/tabs/h/hale/wishing_tab.html ]
 
 Chorus
D        F#m               G       A/G/F/G
 On the wings of love we falter
D            F#m              G           A/G/F/G
 A day with you would be the saddest time
D          F#m           G    A/G/F/G
 soon forever we'll be over
E/F#m/G           A       F/E
 how I wish, how I wish

 D-Bm-A-G-F/E

 Never had a sweet november
 All I had was a dark october
 For a while I wanted to die
 But I said, why oh why

 Refrain

 Chorus 
 
 Outro


e----------0----3--2----0---2-----------0---3-2---0---2---------0---3-2----|
B-------3----3--------3---3-----------3---3-----3---3---------3-- 3-----3--|
G--------------------------------------------------------------------------|
D-0--0---------------------------------------------------------------------|
A-------------------------------2--2---------------------0--0--------------|
E--------------------------------------------------------------------------|

                                       F/E
e--10----9----5----3----2---------------------------------------------------|
B---------------------------3-----------------------------------------------|
G-------------------------------------3---1---------------------------------|
D-------------------------------------3---2---------------------------------|
A-----------------------------------------2---------------------------------|
E-------------------------------------1-------------------------------------|
                       (Sabayan nyo na lng ung kanta)

 D-Bm-A-G-F/E
 
 D-Bm-A-G-F/E pause 
 
 F/E pause F/E pause D
Comments