Hale - Waltz Chords & Tabs

 

Hale Chords & Tabs

Version: 1 Type: Tab 0 ratings
1 star 2 stars 3 stars 4 stars 5 stars
comments

Waltz Tab

   
Song: Waltz
Artist: Hale
Album: Twilight (track no. 5)
Tabber: alfonz___



e2 ung latest single ng hale... may vid ndin toh, txt kau MYX VOTE WALTZ... hehehe... may vid d2: 

http://www.youtube.com/watch?v=XgpQPjuEazM&NR... sa myx yan... hehehe...

updated na po to, sa cd ko na e2 tinab... e2 na po ung promise ko.. ^_^

NOTE:
Guitar 1 - Lead, electric guitar
Guitar 2 - Rhythm, acoustic

VERSE 1: (d2 po, u can put ur left hand on ur pocket... hehehe)

Guitar 1
(clean, let ring lng po)

    D          A      Em
e|-----------------------------|\
B|-----------------------------| \
G|-----------------------------|  \ repeat
D|--0--------------------------|  /   2x
A|-------------0---------------| / 
E|---------------------0-------|/
   I hate the way you are...

    G         D      Em
e|--------------------------|
B|--------------------------|
G|--0-----------------------| 
D|-----------0--------------|  
A|--------------------------| 
E|-------------------0------|
   The most frigid girl

    D          A      Em
e|-----------------------------|
B|-----------------------------| 
G|-----------------------------| 
D|--0--------------------------|    
A|-------------0---------------|
E|---------------------0-------|
   That I have ever known...


VERSE 2: (w/ bass)

Guitar 1: play verse 1
Guitar 2: Strum...

    D          A      Em
e|--2----------0-------0-------|\
B|--3----------2-------0-------| \
G|--2----------2-------0-------|  \ repeat
D|--0----------2-------2-------|  /   2x
A|-------------0-------2-------| / 
E|---------------------0-------|/
   You speak loudly but
   When im not alone

    G         D      Em
e|--3---------2------0-------|
B|--3---------3------0-------|
G|--0---------2------0-------| 
D|--0---------0------2-------|  
A|--2----------------2-------| 
E|--3----------------0-------|
    Youll be just like them 

    D          A      Em
e|-(2)---------0-------0-------|
B|--3----------2-------0-------|
G|--2----------2-------0-------|
D|--0----------2-------2-------|  
A|-------------0-------2-------| 
E|---------------------0-------|
   So shallow and obnoxious

then...

REFRAIN:

Guitar 1: (clean prin)	

   Bm                       G
e|-------------------------------------------------------|
B|-------------------------------------------------------|
G|-------------------------------------------------------|
D|----------------------------5p4-5p4-\------------------|
A|------------------------------------->-repeat 4x-------|
E|--------------------------3---------/------------------|
   Plea--                  ---se...

Guitar 2:

(palm mute, pakinggan nlng ung song para sa timing...)

   Bm (x2443x)              G (3554xx)
e|-------------------------------------------------------|
B|------3-x-3-x-\----------------------------------------|
G|------4-x-4-x--\-repeat-------4-x-4-x-\-----same w/----| 
D|--4-4-4-x-4-x--/---4x---------5-x-5-x--\-----Bm--------|  
A|--2-2-------x-/-----------5-5-5-x-5-x--/--(repeat 4x)--| 
E|--------------------------3-3---------/----------------|
   Plea--                  ---se...

          D             D/C#m (D ako sure sa chord)
e|--------2--------------2------|
B|--------3--------------3------|
G|--------2--------------2------|
D|--------0--------------x------|
A|-----------------------4------|
E|------------------------------|
  That's enough.. thats enough




Guitar 1:

   Bm                       G
e|-------------------------------------------------------|
B|-------------------------------------------------------|
G|-------------------------------------------------------|
D|----------------------------5p4-5p4-\------------------|
A|------------------------------------->-repeat 4x-------|
E|--------------------------3---------/------------------|
   Plea--                  ---se...

Guitar 2:

   Bm (x2443x)              G (3554xx)
e|-------------------------------------------------------|
B|------3-x-3-x-\----------------------------------------|
G|------4-x-4-x--\-repeat-------4-x-4-x-\-----same w/----| 
D|--4-4-4-x-4-x--/---4x---------5-x-5-x--\-----Bm--------|  
A|--2-2-------x-/-----------5-5-5-x-5-x--/--(repeat 4x)--| 
E|--------------------------3-3---------/----------------|
   Plea--                  ---se...



CHORUS:

Guitar 1: 1 strum each chord
Gutiar 2: Strum the chords

(light distortion...)

* let ring (for guitar 1 only)

e|---------------------------------------|
B|---------------------------------------|
G|---------------------------------------|
D|-----9----------8--------7---6-----5*--|
A|-----9----------9--------7---6-----5*--|
E|-----7----------6--------5---4-----3*--|
  Ive said this a million times  before

e|--------2*--------------|
B|--------3*--------------|
G|--------2*--------------|
D|--------0*--------------|
A|------------------------|
E|------------------------|
  and I'm sick...


Guitar 1:
(heavy distortion na d2 w/ drums)
Guitar 2, strum the chords written above the tabs until the "is you..." part..

                 G           A
e|----------------------------------------|
B|----------------------------------------|
G|-------------------------------7-6-6-6--|
D|---------------5-5-5-4-4-4-7-7-7-7-7-7--|
A|---------------5-5-5-5-5-5-7-7-7-7-7-7--|
E|---------------3-3-3-2-2-2-5-5-5-5-5-5--|
  but all that I ne------------ed. And all that I

   G     G/F#  A
e|--------------------------|
B|--------------------------|
G|-----------------7-6-6-6--|
D|-5-5-5-4-4-4-7-7-7-7-7-7--|
A|-5-5-5-5-5-5-7-7-7-7-7-7--|
E|-3-3-3-2-2-2-5-5-5-5-5-5--|
   ble--------ed... and all that I

   G     G/F#  A
e|--------------------------|
B|--------------------------|
G|-----------------7-6-6-6--|
D|-5-5-5-4-4-4-7-7-7-7-7-7--|
A|-5-5-5-5-5-5-7-7-7-7-7-7--|
E|-3-3-3-2-2-2-5-5-5-5-5-5--|
   ca-----------re for...

      Bm     C#m    D
e|------------------------|
B|-------3------5---7-----|
G|------4------4----7-----|
D|------------------------|
A|----2-----/4------5-----|
E|------------------------|
  is you...


VERSE 4:

Guitar 1: (clean)
u can pluck or strum, once each...

    D          A      Em
e|--2----------0-------0-------|\
B|--3----------2-------0-------| \
G|--2----------2-------0-------|  \ repeat
D|--0----------2-------2-------|  /   2x
A|-----------------------------| / 
E|-----------------------------|/
   You said that you'd call
   But time you'll be at home
[ Tab from: http://www.guitartabs.cc/tabs/h/hale/waltz_tab.html ]
    G         D      Em
e|--3---------2------0-------|
B|--3---------3------0-------|
G|--0---------2------0-------| 
D|--0---------0------2-------|  
A|---------------------------| 
E|---------------------------|
   But you  never   did

    D          A      Em
e|--2----------0-------0-------|
B|--3----------2-------0-------| 
G|--2----------2-------0-------| 
D|--0----------2-------2-------|  
A|-----------------------------| 
E|-----------------------------|
   You said you did mean to

Guitar 2:

    D          A      Em
e|----5----------5-------------|\
B|--7----------5---------------| \
G|--7----------6------7--------|  \ repeat
D|--------------------9--------|  /   2x
A|-----------------------------| / 
E|-----------------------------|/

    G         D      Em
e|--7--10-----5--10--3-------|
B|--8---------7------5-------|
G|---------------------------| 
D|---------------------------|  
A|---------------------------| 
E|---------------------------|

    D          A      Em
e|----5----------5-------------|
B|--7----------5---------------| 
G|--7----------6------7--------|
D|--------------------9--------|
A|-----------------------------| 
E|-----------------------------|

VERSE 5:

Guitar 1: (soft distortion)

* - let ring

    D          A      Em
e|---------------------------------|\
B|---------------------------------| \
G|--7*-----------------------------|  \ repeat
D|--7*---------7*------2*----------|  /   2x
A|--5*---------7*------2*----------| / 
E|-------------5*------0*----------|/
   Now I am in rage
   As if we were engaged

    G         D      Em
e|--------------------------------|
B|--------------------------------|
G|--12*-------7*------------------| 
D|--12*-------7*-----2*-----------|  
A|--10*-------5*-----2*-----------| 
E|-------------------0*-----------|
   You made me realize

    D          A      Em
e|---------------------------------|
B|---------------------------------| 
G|--7*-----------------------------| 
D|--7*---------7*------2*----------| 
A|--5*---------7*------2*----------|
E|-------------5*------0*----------|
   Im just your alibi

Guitar 2:

Strum the chords written above the tabs on verse 5...


REFRAIN:

(palm mute prin...)

v - strum downwards

Guitar 1:
 
play this sa G...

G|-----------------|
D|-5p4h5p4h5p4h5---|
A|-----------------|
E|-----------------|

Guitar 2:

   v v v v
e|----------------------------------|
B|-3-3-3-3-\------------------------|
G|-4-4-4-4--\-repeat---4-4-4-4------|
D|-4-4-4-4--/---4x-----5-5-5-5------|
A|-2-2-2-2-/-----------5-5-5-5------|
E|---------------------3-3-3-3------|
   Plea-----------------se...

          D             D/C#m
e|--------2--------------2------|
B|--------3--------------3------|
G|--------2--------------2------|
D|--------0--------------x------|
A|-----------------------4------|
E|------------------------------|
  That's enough.. thats enough

Guitar 1:
 
play this sa G...

G|-----------------|
D|-5p4h5p4h5p4h5---|
A|-----------------|
E|-----------------|

Guitar 2:

   Bm (x2443x)              G (3554xx)
e|-------------------------------------------------------|
B|------3-x-3-x-\----------------------------------------|
G|------4-x-4-x--\-repeat-------4-x-4-x-\-----same w/----| 
D|--4-4-4-x-4-x--/---4x---------5-x-5-x--\-----Bm--------|  
A|--2-2-------x-/-----------5-5-5-x-5-x--/--(repeat 4x)--| 
E|--------------------------3-3---------/----------------|
   Plea---                ---se...




CHORUS:

Guitar 1: 1 strum each chord
Gutiar 2: Strum the chords

(light distortion...)

* let ring (for guitar 1 only)

e|---------------------------------------|
B|---------------------------------------|
G|---------------------------------------|
D|-----9----------8--------7---6-----5*--|
A|-----9----------9--------7---6-----5*--|
E|-----7----------6--------5---4-----3*--|
  Ive said this a million times  before


(guitar 1:heavy distortion, strum)
e|--------2--------------|
B|--------3--------------|
G|--------2--------------|
D|--------0--------------|
A|-----------------------|
E|-----------------------|
  and I'm sick...




Guitar 1:
(heavy distortion na d2 w/ drums)
Guitar 2, strum the chords written above the tabs

                 G           A
e|----------------------------------------|
B|----------------------------------------|
G|-------------------------------7-6-6-6--|
D|---------------5-5-5-4-4-4-7-7-7-7-7-7--|
A|---------------5-5-5-5-5-5-7-7-7-7-7-7--|
E|---------------3-3-3-2-2-2-5-5-5-5-5-5--|
  but all that I ne------------ed. And all that I

   G     G/F#  A
e|--------------------------|
B|--------------------------|
G|-----------------7-6-6-6--|
D|-5-5-5-4-4-4-7-7-7-7-7-7--|
A|-5-5-5-5-5-5-7-7-7-7-7-7--|
E|-3-3-3-2-2-2-5-5-5-5-5-5--|
   ble--------ed... and all that I

   G     G/F#  A
e|--------------------------|
B|--------------------------|
G|-----------------7-6-6-6--|
D|-5-5-5-4-4-4-7-7-7-7-7-7--|
A|-5-5-5-5-5-5-7-7-7-7-7-7--|
E|-3-3-3-2-2-2-5-5-5-5-5-5--|
   ca-----------re for...

   G     G/F#  A
e|--------------------------|
B|--------------------------|
G|-----------------7-6-6-6--|
D|-5-5-5-4-4-4-7-7-7-7-7-7--|
A|-5-5-5-5-5-5-7-7-7-7-7-7--|
E|-3-3-3-2-2-2-5-5-5-5-5-5--|
   is you... ohhh

repeat from "but all that I need until "care for"
 
Guitar 1:

e|-----|
B|-----|
G|-----|
D|-5*--|
A|-5*--|
E|-3*--|
  is you...

Guitar 2:

Strum:

e|-3---0---2--|
B|-3---2---3--|
G|-0---2---2--|
D|-0---2---0--|
A|-2---4------|
E|-3----------|
   is you..

e|--------------------------|
B|-------3------2-----------|
G|----2--2------2-----------|
D|--0---------2-------------|
A|----------0---------------|
E|-----------------0-(bass)-|
    I       hate  you...



LYRICS:
Waltz - Hale

Waltz by Hale

I hate the way you are
So mean to me by far
The most frigid girl
That i have ever known

You speak loudly, but
When i'm not around
You'll be just like them
So shallow and obnoxious

Please...
That's enough (2x)
Please...

I've said this a million times before
And i'm sick
But all that i need
And all that i bleed
And all that i care for
Is you

You said that you'd call
But time you'll be at home
But you never did
You said you did mean to

Now i'm outraged
As if we're engaged
You made me realize
I'm just your alibi

Please...
That's enough (2x)
Please...

I've said this a million times before
And i'm sick
But all that i need
And all that i bleed
And all that i care for
Is you

And all that i need
And all that i bleed
And all that i care for
Is you

I hate you..

pacenxa na talaga kung mas naging magulo... at least mas accurate... hehehe

d2 ko un kinuha lyrics http://cyberpinoy.net/music_page-song_id-587.html.. for comments/suggestions,
send me a msg sa frendster or sa email: alfonz_montelibano@yahoo.com... add me ha...

~dedicated to chu yin, u know hu u r... sorry.......~
Comments